Song name
# A B C D E F G H I J K L M N O P Q R S T U V W X Y Z

Deus - Great American Nude tab

Great American Nude  -  dEUS

tab by Avi

the song has two parts, the “big” part (most of the song) and the 
beautiful outro

-------
PART 1
-------

The main riff is - 
e|------------------------------|
B|----4b------------------------|
G|-------3b--------1------------|
D|-------------------1-1--------|
A|--4--------4/2-2-------2-2/4--|
E|------------------------------|

Another riff played is - 
e|---------------------------------|
B|-6-6-4---4-----------------------|
G|-------6---6-5-5-6-6-5-4-5-4-5-4-|
D|---------------------------------|
A|---------------------------------|
E|---------------------------------|

Another one is (2:21) - 
e|-----4-----------|-----4---------|
B|-6-6---6-4---4-4-|-6-6---6-4-----|
G|-----------6-----|-----------6-6-|
D|-----------------|---------------|
A|-----------------|---------------|
E|-----------------|---------------|

another - 
e|-----------------|
B|-----------------|
G|---------4-4-6br-|
D|-----6-6---------|
A|-4-4-------------|
E|-----------------|

and another - 
e|---------------------|
B|---------------------|
G|-6-6-6-6-6-6-6-6-6-6-|
D|---------------------|
A|---------------------|
E|---------------------|


-------
PART 2 
-------
(4:55 - till end)

e|-------|-----|-----|-------------|---------|---------|----------|
B|-------|-----|-----|-------------|---------|---------|----------|
G|-7h8-7-|-5-4-|-2---|-------------|---------|---------|----------|
D|-------|-----|---4-|-4/5-5-5-4-2-|---------|---9-7-5-|----------|
A|-------|-----|-----|-------------|-7-5-5h7-|-7-------|-7-5-3--5-|
E|-------|-----|-----|-------------|---------|---------|----------|

e|-------|-----|-----|---------|-----|-----|-------|-----|-------|
B|-------|-----|-----|---------|-----|-----|-------|-----|-------|
G|-------|-----|-----|---------|-----|-----|-------|-----|-------|
D|-------|-----|-----|---------|-----|-----|-------|-----|-------|
A|-5-5/7-|-7/8-|-7/5-|-5-3-2-0-|-----|-----|-------|-----|-------|
E|-------|-----|-----|---------|-5/3-|-3/5-|-5-5/3-|-3/5-|-5-5/8-|

e|--------|----|------|-----|-------|-----|---------|-----|---|
B|--------|----|------|-----|-------|-----|---------|-----|---|
G|--------|----|------|-----|-------|-----|---------|-----|---|
D|--------|----|------|-----|-------|-----|---------|-----|---|
A|--------|----|------|-----|-------|-----|---------|-----|---|
E|-8-8/10-|-10-|-10/8-|-8/7-|-7-7/5-|-5/8-|-7-7h8p7-|-7/5-|-5-|

and the chords for this piece is simply kinda -
    D    Em
e|-----|-----|
B|-----|-----|
G|--7--|--9--|
D|--7--|--9--|
A|--5--|--7--|
E|-----|-----|
 
Tap to rate this tab
 
# A B C D E F G H I J K L M N O P Q R S T U V W X Y Z