Song name
# A B C D E F G H I J K L M N O P Q R S T U V W X Y Z

Deus - Hotellounge tab

Hotellounge (Be The Death Of Me)   -   dEUS


Tab by Matt, Jim, and Avi 


Intro -  
e|-------9vib--|                       e|---------------|
B|-------------| which is much easier  B|--------14vib--|
G|-------------|  to play like this -  G|---------------|
D|--7-7--------|                       D|---------------|
A|-------------|                       A|--12-12--------|
E|-------------|                       E|---------------|

During the verse the rhythm guitar plays A / Asus4 which is played 
like this (as Tom played live in Tel-Aviv) - 
e|--0--0--|--0-0--0--|--0-0--0--|
B|--5--5--|--5-5--5--|--5-5--5--|
G|--6--6--|--6h7--7--|--7p6--6--|
D|--7--7--|--7-7--7--|--7-7--7--|
A|--0--0--|--0-0--0--|--0-0--0--|
E|--------|----------|----------|

Chorus - 
e|-------12----------12----|
B|----10----10----10----10-|
G|-11----------11----------|
D|-------------------------|
A|-------------------------|
E|-------------------------|

over which a 2nd guitar plays - 
e|--------------------|--------------------|
B|--------------------|--------------------|
G|--------------------|-6-7-6-7-6-7-6-7...-|
D|-6-7-6-7-6-7-6-7...-|--------------------|
A|--------------------|--------------------|
E|--------------------|--------------------|

Then a distorted Bm and then this over A / Asus4 - 
e|----------|-----------|
B|----------|-------10--|
G|-------9--|--9h11-----|
D|--9h11----|-----------|
A|----------|-----------|
E|----------|-----------|

and then (“You move me” part) - 
e|-----------------------|----------------------|
B|-----------------------|----------------------|
G|-----------------------|----------------------|
D|-----------------------|------------------7---|
A|-----------5-5-5-7-5-7-|----------7-7-7-9---9-|
E|-5-7-5-7-5-------------|-5-7-5-7-5------------|

A / D / A / E 

solo (play when necessary) - 
e|-----------|-------------|-------------------|
B|-----------|-------------|-------------------|
G|-2-4-2-4-4-|-2-4-2-4-2-4-|-2-4-2-4-2/7-7-7-7-|
D|-----------|-------------|-------------------|
A|-----------|-------------|-------------------|
E|-----------|-------------|-------------------|

Then Bm distorted and then F# / F and then repeat everything...

between (04:28 - 04:52) there’s this little “solo” -
e|-5-7-5-7-|-5-5-7-5-7-5-7-|-5-7-5-7-5-4-5-4-5-4-5-|
B|---------|---------------|-----------------------|
G|---------|---------------|-----------------------|
D|---------|---------------|-----------------------|
A|---------|---------------|-----------------------|
E|---------|---------------|-----------------------|

this repeats itself many times in the end of the song and one time in 
the middle. the first bit is the main part, the other one is just in 
the ‘real’ end - 
e|-----------|-----------|
B|-----------|-----------|
G|-----------|-----------|
D|-----------|--------7--|
A|--5--7--0--|--5--7-----|
E|-----------|-----------|

-fin-
Tap to rate this tab
 
# A B C D E F G H I J K L M N O P Q R S T U V W X Y Z