Song name
# A B C D E F G H I J K L M N O P Q R S T U V W X Y Z

Deus - Lets Get Lost tab

Let's Get Lost - dEUS


trans. by Andre Schulz (schand@tu-cottbus.de) and Avi


Intro/Outro... 

guitar 1 -
e|-----|------|------|-----|-----|------|------|
B|-----|------|------|-----|-----|------|------|
G|--7--|--10--|------|-----|-----|------|------|
D|--7--|--10--|--10--|--7--|--8--|--10--|--12--|
A|--5--|--8---|--10--|--7--|--8--|--10--|--12--|
E|-----|------|--8---|--5--|--6--|--8---|--10--|

guitar 2 - 
e|--0--|--0--|--3--|--3--|--0--|--0--|-----|
B|--3--|--3--|--3--|--3--|--3--|--3--|--3--|
G|--2--|--2--|--0--|--2--|--2--|--2--|--2--|
D|--0--|--3--|--2--|--2--|--0--|--0--|--0--|
A|-----|-----|--3--|--0--|--1--|--3--|-----|
E|-----|-----|-----|--0--|-----|-----|-----|

main riff is played by the bass so...

thereís this a few times - 
e|--------------0---|-------------0---|
B|-----3----------3-|-----3---3-----3-|
G|---2---2---2------|---2---2---2-----|
D|-0-------0--------|-0---------------|
A|------------------|-----------------|
E|------------------|-----------------|

Middle - 
    D   Cadd9   G
e|--0--|--0--|--3--|
B|--3--|--3--|--3--|
G|--2--|--0--|--0--|
D|--0--|--2--|--0--|
A|-----|--3--|--2--|
E|-----|-----|--3--|

        D5      C9               G
        see you dancing in  your own down rain
        D5      C9          G
        take it in, take it back again
        D5      C9             G      
        looking over when your flashing's old
        D5       C9              G
        it's kinda early but the story is told

The Cadd9 is here a Cadd9sus4 because the D string plays a
-2-3-2-3-2-3-2-3- riff
Tap to rate this tab
 
# A B C D E F G H I J K L M N O P Q R S T U V W X Y Z