Song name
# A B C D E F G H I J K L M N O P Q R S T U V W X Y Z

Deus - Mute tab

Mute - dEUS

Tabbed by Lisa Eriksson

no guitar in the verse...

Chorus - 
    C#5   B5    A5    D5
e|------|-----|-----|-----|
B|------|-----|-----|-----|
G|------|-----|-----|--7--|
D|--11--|--9--|--7--|--7--|
A|--11--|--9--|--7--|--5--|
E|--9---|--7--|--5--|-----|

Lead Guitar (enters on the A) - 
e|----------|----------|--12b--|--12b--|--------|--------|
B|---9vib---|---9vib---|-------|-------|--10-9--|--10-9--|
G|----------|----------|-------|-------|--------|--------|
D|----------|----------|-------|-------|--------|--------|
A|----------|----------|-------|-------|--------|--------|   
E|----------|----------|-------|-------|--------|--------|

transition chord - 
     Ab         
e|-------|
B|-------|
G|-------|
D|---6---|
A|---6---|
E|---4---|

Middle (“keeping it low”...) -
    C#5    B5   Bb5   A5
e|------|-----|-----|-----|
B|------|-----|-----|-----|
G|------|-----|-----|-----|
D|--11--|--9--|--8--|--7--|
A|--11--|--9--|--8--|--7--|
E|--9---|--7--|--6--|--5--|

between 2:20 - 2:22 there’s - 
e|-12----12----12----12----|
B|----12----12----12----12-|
G|-------------------------|
D|-------------------------|
A|-------------------------|
E|-------------------------|

that’s kinda it...
Tap to rate this tab
# A B C D E F G H I J K L M N O P Q R S T U V W X Y Z