Song name
# A B C D E F G H I J K L M N O P Q R S T U V W X Y Z

Deus - Jigsaw You tab

Jigsaw You

trans. by Stewart & Avi

Intro -
e|----------|-----|------|-------|------|-----|------|-------|------|
B|----------|---3-|------|---5-3-|------|---3-|------|---3-5-|------|
G|-4-4-4...-|-4---|-4...-|-4-----|-4...-|-4---|-4...-|-4-----|-4...-|
D|----------|-----|------|-------|------|-----|------|-------|------|
A|----------|-----|------|-------|------|-----|------|-------|------|
E|----------|-----|------|-------|------|-----|------|-------|------|

e|-----------|
B|-0-1-3-3/5-|
G|-----------|
D|-----------|
A|-----------|
E|-----------|

Then it goes to the chorus which is -
D / G / D / F 

Verse -
Bm / D

Bridge (“thinking of...”)  -
Bm / G / A / A / G

a riff that’s played sometimes is - 
e|------7p5--|
B|--7p5------|
G|-----------|
D|-----------|
A|-----------|
E|-----------|

just beautiful.



-----------BASS TAB------------------
Jigsaw You

------
Bass
------

tab by Avi ! :-)

Intro - 
G|----------|
D|----------|
A|-2-2-2...-|
E|----------|

G|-------------11-------11-10-9-|-9-9-9-9-|-9-----11-|--------11-|
D|------------------------------|---------|----------|-----------|
A|-2-2-3-5-10-----10-10---------|---------|----10----|-10-10-----|
E|------------------------------|---------|----------|-----------|

G|------|------9---|------|-------|-------|-----------|
D|------|----------|------|-------|-------|-----------|
A|-10-8-|-8-8----8-|-8-10-|-10-10-|-10-10-|-10--------|
E|------|----------|------|-------|-------|----7-8-10-|

G|-----11-------11-10-9-|-9-9-9-9-|-9-----11-|--------11-|------|
D|----------------------|---------|----------|-----------|------|
A|-10-----10-10---------|---------|----10----|-10-10-----|-10-8-|
E|----------------------|---------|----------|-----------|------|

G|------9----|
D|-----------|
A|-8-8----8/-|
E|-----------|

Verse (when tom starts to sing) - 
G|---|-------|------|------|----------------|----------------|-----|
D|---|-------|------|------|----------------|-------12/14-12-|-----|
A|---|-------|------|------|-12h14-14-14/17-|-12h14----------|-14/-|
E|-7-|-7-7-7-|-7...-|-7/10-|----------------|----------------|-----|
...twice

G|------|------|------|------|
D|------|------|------|------|
A|------|------|------|------|
E|-7-..-|-3...-|-5...-|-3...-|

and this genius part just repeats itself...


Tap to rate this tab
# A B C D E F G H I J K L M N O P Q R S T U V W X Y Z