Song name
# A B C D E F G H I J K L M N O P Q R S T U V W X Y Z

Deus - Wcs tab

W.C.S. (First Draft)

Tab by Sergio Rebola & Avi

The song is mainly a bass line -
G|------6/7-5---------|------6/7-5---------|
D|------------7-3-----|------------7-------|
A|---5------------2h3-|---5----------8-----|
E|-3------------------|-3--------------7-8-|

At times a guitar starts playing D5 and C5 in the background.

this riff at the end - 
e|----14----14----|---14b-|----14----14----|----16b-|
B|-13----13----13-|-13----|-13----13----13-|-13-----|
G|----------------|-------|----------------|--------|
D|----------------|-------|----------------|--------|
A|----------------|-------|----------------|--------|
E|----------------|-------|----------------|--------|
Tap to rate this tab
# A B C D E F G H I J K L M N O P Q R S T U V W X Y Z