Song name
# A B C D E F G H I J K L M N O P Q R S T U V W X Y Z

Deus - Suds And Soda tab

dEUS
Suds & Soda

Tab by Nadja Weber, Sarah Nuschke and Avi

Intro - 

The violin does this...
e|-0-12-0-12-0-12-0-12-|
B|---------------------|
G|---------------------|
D|---------------------|
A|---------------------|
E|---------------------|
   _______________   _________________
  /     twice     \ /      twice      \
E|-----------------|-------------------|
B|-----------------|-------------------|
G|---4-------4-----|---6-------6-------|
D|-------4-------4-|-------6-------6---|
A|-5---5---5---5---|-7---7---7---7---7-|
E|-----------------|-------------------|

then both of the guitars do an E, each one with a different effect, 
and itís not the chords that makes the sound, but how u play it :-)
e|----------|-------|
B|----------|-------|
G|----9-----|--9/7--|
D|----9-----|--9/7--|
A|----7...--|--7/5--|
E|----------|-------|

Verse - 
    E     E     A     B
e|-----|-----|-----|-----|
B|-----|-----|-----|-----|
G|--9--|--9--|-----|-----|
D|--9--|--9--|--7--|--9--|
A|--7--|--7--|--7--|--9--|
E|-----|-----|--5--|--7--|

then...
e|-----------------------|
B|-----------------------|
G|--9-10-9-10-9-10-9-10--|
D|--9-10-9-10-9-10-9-10--|
A|--7-8--7-8--7-8--7-8---|
E|-----------------------|

and then - 
e|-----------------------|
B|-----------------------|
G|----------7-9----------|
D|--7-9-7-9-7-9-7-9-7-9--|
A|--7-9-7-9-5-7-7-9-7-9--|
E|--5-7-5-7-----5-7-5-7--|

and then -
e|---------------------| 
B|---------------------|         
G|--8--8-8-9-8---------|    
D|--9--9-9-9-9--9-7-9--| 
A|--9--9-9-9-9--9-7-9--|         
E|--------------7-5-7--|         

which usually when played live is - 
e|-----------------|
B|-----------------|
G|-8-8-8-9-8-------|
D|-----------9-7-9-|
A|-----------------|
E|-----------------|

Chorus - 
     B       A     
e|---7---|---5---|
B|---7---|---5---|
G|---8---|---6---|
D|---9---|---7---|
A|---9---|---7---|
E|---7---|---5---|

Keyboard solo -
|E| 

at the really end thereís a guitar riff something like this - 
e|-----------------|
B|-----------------|
G|-----7h9p7---7h9-|
D|-7h9-------9-----|
A|-----------------|
E|-----------------|

Man, I LOOOOOVE this song !!!!!



-----------BASS TAB------------------

Suds & Soda
tab by avi

-----
Bass 
-----
  _________________  ___________________________
 /    Intro        \/      All Verses           \
G|-9-7---7---------|----------------------------|
D|-----9---9-7/5---|----------------------------|
A|---------------7-|-7-7-7...-0-0-0...-2-2-2...-|
E|-----------------|----------------------------|

Pre chorus - 
(actually thereís no bass in this part but if there was it would be 
doing...)
G|-------------------------------|
D|-------------12-14-------------|
A|-12-14-12-14-------12-14-12-14-|
E|-------------------------------|

Chorus - 
G|-----------------------------|
D|-----------------------------|
A|-2-2-2-2-2-2-0-0-0-0-0-0-4-5-|
E|-----------------------------|

Bridge - 
G|-------7---|-7/9-7---7---------|
D|-7-8-9---9-|-------9---9-7/5---|
A|-----------|-----------------7-|
E|-----------|-------------------|

the keyboard solo is basically the bridge riffs
Tap to rate this tab
# A B C D E F G H I J K L M N O P Q R S T U V W X Y Z