Song name
# A B C D E F G H I J K L M N O P Q R S T U V W X Y Z

Deus - Shake Your Hip tab

Shake Your Hip

trans. by avi

Everything - 
A / G 

Pause 1 - 
e|-----------|
B|-----------|
G|------7----|
D|--5-7-7-7--|
A|--5-7-5-7--|
E|--5-5---5--|

Pause 2 - 
e|-------|             Bass
B|-------|             G|---14vv--|
G|-------|             D|---------|
D|--7vv--|             A|---------|
A|--7vv--|             E|---------|
E|--5vv--|

Pause 3 - 
e|-5------|---------|
B|---6-5--|---------|
G|--------|-5-5bvvv-|
D|--------|---------|
A|--------|---------|
E|--------|---------|
Tap to rate this tab
# A B C D E F G H I J K L M N O P Q R S T U V W X Y Z