Song name
# A B C D E F G H I J K L M N O P Q R S T U V W X Y Z

Deus - Secret Hell tab

Secret Hell

Tabbed out by Andre Schulz & Avi Yaacov


The background sound is a blues bend - 
e|---------------|
B|---------------|
G|-0----0---0----|
D|---5b---5---5b-|
A|---------------|
E|---------------|

The guitar goes like this (with slight variations) - 
e|--------------------------|
B|--------------------------|
G|--------------------------|
D|--4---4-----------5-------|
A|--2-2---0-5---5-0-3-(s)5--|
E|----------3-3----------3--|


The rest of the song is C G B and a D chord. Watch the lyrics.

        B        G
        You know well
        B          G
        Just never tell
           C               D
        If someone's got a secret hell

        G
        Now you
        B                      C
        You should be breakin' me
            G               B
        Sometimes I lose my head
                     C
        I don't know nothing
        G   B                  C
        You should be breaking me
          G                B                C
        Instead you let me hide behind your back

        B           G
        What goes around
        B              G
        Will come back down
            C              D
        Can someone get it out of town

The rest of the song is the riff from the beginning and the known 
chords.

in the middle between 2:09 - 2:42 there’s this - 
e|--------|-----|------------|---------|---------|
B|-12brbr-|-----|------------|---------|---------|
G|--------|-12b-|-12p11------|-7p4-4---|-7p4-4---|
D|--------|-----|-------12-9-|-------5-|-------5-|
A|--------|-----|------------|---------|---------|
E|--------|-----|------------|---------|---------|
                                             __________________
                                            / this a few times \
e|-15-14--15-14-|--17--|--19-17--|---------|-------------------|
B|--------------|------|---------|--15/17--|--15p12-12---------|
G|--------------|------|---------|---------|-----------12------|
D|--------------|------|---------|---------|-------------------|
A|--------------|------|---------|---------|-------------------|
E|--------------|------|---------|---------|-------------------|

and then go back to the “in this state...” part

Outro - 
this riff mostly...
e|-10-|-10-8-7-|-8-7-|-8-7-5-|-8-7---|
B|----|--------|-----|-------|-----8-|
G|----|--------|-----|-------|-------|
D|----|--------|-----|-------|-------|
A|----|--------|-----|-------|-------|
E|----|--------|-----|-------|-------|

so beautiful.
Tap to rate this tab
# A B C D E F G H I J K L M N O P Q R S T U V W X Y Z