Song name
# A B C D E F G H I J K L M N O P Q R S T U V W X Y Z

Devendra Banhart - Carmensita tab

Highlighted       Show chord diagrams
-------------------------------------------------------------------------------
			     Carmensita - Devendra Banhart
-------------------------------------------------------------------------------
Tabbed by: Doshy
Email:

Tuning: Standard Pretty simple this one:


    Am   D    Em
e|-0-0--5-5--7-7--7-7--------------------------------------------------------|
B|-1-0--7-7--8-8--8-8--------------------------------------------------------|
G|-2-2--7-7--9-9--9-9--------------------------------------------------------|
D|-2-2--7-7--9-9--9-9--------------------------------------------------------|
A|-0-0--5-5--7-7--7-7--------------------------------------------------------|
E|-x-x--x-x--x-x--x-x--------------------------------------------------------|



| /  slide up
| \  slide down
| h  hammer-on
| p  pull-off
| ~  vibrato
| +  harmonic
| x  Mute note
===============================================================================
Tap to rate this tab
# A B C D E F G H I J K L M N O P Q R S T U V W X Y Z