Song name
# A B C D E F G H I J K L M N O P Q R S T U V W X Y Z

Devendra Banhart - Poughkeepsie tab

Song:Pougkeepsie
Artist:Devendra Banhart
Album:Rejoicing the Hands

This is my favorite Devendra Banhart song and one day it came to me out of 
nowhere. Its not perfect but definately close. cheers

Tabbed by: Derrick Mosier
Email: Primodmo@gmail.com

Tuning: Standard
  "by    the   banks of....
e|-------------------------|
B|---2-----2-----2-----2---|
G|-----2-----2-----2-----2-|
D|-------0-----------0-----| Part one repeat several times
A|-4-----------4-----------|
E|-------------------------|

e|--------------------------|
B|---2-----2-----2-----2----|
G|-----2-----2-----2-----2--|
D|-------0------------------|
A|-4-----------4-----2------| lead in to next chord
E|--------------------------|
  

 Have you heard it?
e|-------------|
B|---2-----2---| Repeat a few times then 
G|-----0-----0-|
D|-------2-----|
A|-0-----------|
E|-------------|
 

        Ive   heardit    too     
e|--------------------------------------------------|
B|---2-----2-----2-----2-----2-----2-----2-----2----|
G|-----0-----2-----2-----2-----2-----2-----2-----2--|
D|-------4-----4-----3-----2-----2-----2-----2------|
A|-0------------------------------------------------|
E|--------------------------------------------------|

e|---------------------------0-|
B|-0-h-2~----2-----2-----2-----|
G|-------0-----0-----0-----0---|
D|-0-h-2~--2-----2-----2-----2-|
A|-----------------------------|
E|-----------------------------|


Like I said, not perfect but close. If you really know and like this song 
youll be playing it in no time. peace
==============================================================================
Tap to rate this tab
# A B C D E F G H I J K L M N O P Q R S T U V W X Y Z