Song name
# A B C D E F G H I J K L M N O P Q R S T U V W X Y Z

Devendra Banhart - Dogs They Make Up The Dark tab

-------------------------------------------------------------------------------
			     Dogs They Make Up The Dark - Devendra Banhart
-------------------------------------------------------------------------------

Figured this out by ear, i know it's not as he plays it but i'm not that
good to figure it out properly, this is the gist of it though...


e|--7--7--3--3--3---------------------7--7--3--3--3--------------------------|
B|----------------5--5--7--5------------------------5------------------------|
G|---------------------------------------------------------------------------|x2
D|---------------------------------------------------------------------------|
A|---------------------------------------------------------------------------|
E|---------------------------------------------------------------------------|


e|--7--7--7--10--10--7--5--7--7------7--7--7--10--10--7/12-------------------|
B|---------------------------------------------------------------------------|
G|---------------------------------------------------------------------------|
D|---------------------------------------------------------------------------|
A|---------------------------------------------------------------------------|
E|---------------------------------------------------------------------------|

e|--12\7-----7--7--10--7--5--7--7--------7--3--3-----------------------------|
B|------------------------------------------------7--7/8--5------------------|
G|---------------------------------------------------------------------------|
D|---------------------------------------------------------------------------|
A|---------------------------------------------------------------------------|
E|---------------------------------------------------------------------------|


===============================================================================
Tap to rate this tab
 
# A B C D E F G H I J K L M N O P Q R S T U V W X Y Z