Song name
# A B C D E F G H I J K L M N O P Q R S T U V W X Y Z

Devendra Banhart - Baby tab

                              "Baby"
                                by
                         Devendra Banhart

NOTE:One of my favorites off the new album. Enjoy!
I learned it by watching this video

http://www.youtube.com/watch?v=0r8-AkLCWjc&feature=related

(Intro/verses) Guitar 1: Devendra
e|-------------------------------------------------------------9---9---|
B|----------------------------------------10-----------10------10--10--|
G|-----9-------9----------9------9-------------------------------------|
D|-------9------------------9----------------11-----------11-----------|
A|-7-7-------7------7--7-------7-----9--9---------9--9-----------------|
D|---------------------------------------------------------------------|

(Intro/verses) Guitar 2: Noah
e|-12--11--9---------------------------------------------------|
B|-10--------9---10-9-7-9-10--7/4---9------7-------------------|
G|-11---------------------------------9--8---8---6--6-8-9-6----|
D|---------------------------------------------9------------7--|
A|-------------------------------------------------------------|
D|-------------------------------------------------------------|

(Occasionally Noah will play this part higher. Listen to the song
to find out when exactly to play it higher.)
e|------------------------------------|---------------------|
B|------------------------------------|--10-10-9-9-7-7-9-9--|
G|--2-2-1-1-----1-1--2-2-1-1-----1-1--|---------------------|
D|----------4-4--------------4-4------|---------------------|
A|------------------------------------|---------------------|
D|------------------------------------|---------------------|

(ONLY IN THE STUDIO VERSION) There's a 3rd guitar in the background of
the 2nd verse strumming these two chords.
e|-7----7------9------9---|
B|-9----9-----10-----10---|
G|-9----9-----11-----11---|
D|-9----9-----11-----11---|
A|-7----7------9------9---|
D|------------------------|

(CHORUS) 
Guitar 1: Devendra
e|-5-5-5-5-5-5-5-5-----------------5-5-5-5-5-5-5-5------------------|
B|-5-5-5-5-5-5-5-5-9-9-9-9-9-9-9-9-5-5-5-5-5-5-5-5-9-9-9-9-9-9-9-9--|
G|-6-6-6-6-6-6-6-6-9-9-9-9-9-9-9-9-6-6-6-6-6-6-6-6-9-9-9-9-9-9-9-9--|
D|-7-7-7-7-7-7-7-7-9-9-9-9-9-9-9-9-7-7-7-7-7-7-7-7-9-9-9-9-9-9-9-9--|
A|-7-7-7-7-7-7-7-7-7-7-7-7-7-7-7-7-7-7-7-7-7-7-7-7-7-7-7-7-7-7-7-7--|
D|-5-5-5-5-5-5-5-5-----------------5-5-5-5-5-5-5-5------------------|

e|-7-7-7-7-7-7-7-7--|
B|-7-7-7-7-7-7-7-7--|
G|-8-8-8-8-8-8-8-8--|
D|-9-9-9-9-9-9-9-9--|
A|-9-9-9-9-9-9-9-9--|
D|-7-7-7-7-7-7-7-7--|

(Not so sure about this part, kinda hard to hear)
Guitar 2 palm muted: Noah
e|--------------------------------------|
B|-10---10---10---10---9-----7-9-7------|
G|----9----9----9----9-----9-------9----|
D|-----------------------9-----------9--|
A|--------------------------------------|
D|--------------------------------------|


SOLO


Guitar 1: Devendra
e|-16-14-12-12-11--9--| |---12-14--9-12-11--9-----| 
B|--------------------| |-------------------------|   
G|--------------------| |-------------------------|
D|-18-16-14-14-13-11--| |---14-16-11-14-13-11-----|
A|--------------------| |-------------------------|
D|--------------------| |-------------------------|

Guitar 2: Noah
e|--12-11-9--|
B|--10-------|
G|--11-------|
D|-----------|
A|-----------|
D|-----------|
Tap to rate this tab
# A B C D E F G H I J K L M N O P Q R S T U V W X Y Z