Song name
# A B C D E F G H I J K L M N O P Q R S T U V W X Y Z

Devendra Banhart - Fall tab

It's pretty easy when you get the hang of it and it's one of my favorites.
Thanks,

Jake Miller

e|-----------------------------------------------------|
B|---------------0---------------0---------------------|
G|-------------------0---------------------------------|
D|-----------------------------------------------------|
A|-0---5---7---7---7---7/9-7---7-----------------------| x2
E|-----------------------------------------------------|

e|-----------------------------------------------------|
B|---------------0---------------0---------------------|
G|-------------------0---------------------------------|
D|-----------------------------------------------------|
A|-0---3---5---5---5---5/7-5---5-----------------------| x2
E|-----------------------------------------------------|

Verse:

e|---------------|
B|-------0-------|
G|-----------0---|
D|---------------|
A|-7---7---7---7-| x4
E|---------------|

e|---------------|
B|-------0-------|
G|-----------0---|
D|---------------|
A|-5---5---5---5-| x2
E|---------------|

e|-------------------------------|
B|-------0-------0-------0-------|
G|-----------0-------0-------0---|
D|-------------------------------|
A|-5---5---5---5---5---5---5---5-|
E|-------------------------------|

e|-----------------------------------------------------|
B|---------------0---------------0---------------------|
G|-------------------0---------------------------------|
D|-----------------------------------------------------|
A|-0---5---7---7---7---7/9-7---7-----------------------| x2
E|-----------------------------------------------------|

e|-----------------------------------------------------|
B|---------------0---------------0---------------------|
G|-------------------0---------------------------------|
D|-----------------------------------------------------|
A|-0---3---5---5---5---5/7-5---5-----------------------| x2
E|-----------------------------------------------------|
Tap to rate this tab
# A B C D E F G H I J K L M N O P Q R S T U V W X Y Z