Song name
# A B C D E F G H I J K L M N O P Q R S T U V W X Y Z

Devendra Banhart - Walilamdzi tab

My first tab, may not be 100% accurate just the basics of what is played, but it is what 
play in this video: http://www.youtube.com/watch?v=kTubFToVgqA

First part (Dalilamdzi Walilamdzi)
e------------------------------------------------0----------|
B---------0------------0-------0-------------------0--0-----|
G----------------0---------------0-------------------0------|
D------2-----------2----------------------------------------|
A-2h3---------3------------2--------2h3-0-------------------|
E--------------------------------------------3--------------|


Second Part (Seena Seena)

   G           D    7th   C         D               C             		           G
e--3-----------2----7--0------0h2p0------2--------------0--------------0----------------|
B----0--------------0----1----------3--------3--3---1------1---1---1-------1---0--------|
G-------0--0---0-----------0------------2------2-------0------0-------0-------0------0--|
D--------0--------------------------0---------------------------------------------------|
A----------------------3----------------------------3------------3-------0--------------|
E--3---------------------------------------------------------------------------------3--|


Thirt Part (Empo Empo)
    C                 D                 C                  D
e--------0------------------2-----------0------------------2--------------|
B---1-----1---1-------3------3---3---------1-----------------3------------|
G-----0-----0------------2-----2---------------0---0------------3---3-----|
D-------------------------------------------------2--------0------2-------|
A---3-----------------0-----------------3---------------------------------|
E-------------------------------------------------------------------------|
Then Back to Second part




Tabbed by brian motyll
Tap to rate this tab
 
# A B C D E F G H I J K L M N O P Q R S T U V W X Y Z