Song name
# A B C D E F G H I J K L M N O P Q R S T U V W X Y Z

Devendra Banhart - Shabop Shalom tab

-----------------------------------------------------------------------------
			     Shabop Shalom - Devendra Banhart
----------------------------------------------------------------------------
Tabbed by: Chorillos
Email: mad.wax@hotmail.com
(email me if any mistakes)

Tuning: Standard


INTRO:
           G                  Em                Am                 D
E|-----------3-----------------0-----------------0-----------------2--------|
B|--------------------------0-----0-----------1-----1-----------3-----3-----|
G|--------0-----0--------------------0-----2-----------2-----2-----------2--|
D|-----0-----------0-----2--------------------------------0-----------------|
A|--------------------------------------0-----------------------------------|
E|--3-----------------0-----------------------------------------------------|

VERSES:

G  Am  C  D

My Shabop Shalom Baby,
won't you Shabop Shalom with me, under the old banana tree?

My sweet telavivian lambs bread,
my heart can act as an emollient
and you'll never ever say, "Get Bent! No, no, no!

Todamamatodamama
Todamamatodamama

Am  G  D  Am

All the signals that I'm sendin I'll keep sending them
and on the constanttillionth time I'll make you mine,
Yes, I swear I will..

SOLO:

E|---------------------------------------------------10----------|
B|------8-8-------8-8--------8-8---------8-10--10/12----12\10--8-|
G|--7h9--------7h9--------7h9--------7h9-------------------------|
D|---------------------------------------------------------------|
A|---------------------------------------------------------------|
E|---------------------------------------------------------------|


E|------------------------------------------12-10--10\7/10------|
B|------8-8--------8-8---------8-8----10/12---------------------|
G|--7h9--------7h9--------7h9-----------------------------------|
D|--------------------------------------------------------------|
A|--------------------------------------------------------------|
E|--------------------------------------------------------------|
Tap to rate this tab
# A B C D E F G H I J K L M N O P Q R S T U V W X Y Z