Song name
# A B C D E F G H I J K L M N O P Q R S T U V W X Y Z

Devendra Banhart - Lover tab

This is lover by Devendra Banhart, its a very simple song, dont count on how many times 
put the chords down, listen to the song and figure out when to change to the next chord. 
is a great song with a beautiful "get up and move" rhythm

e|--3------3--------3------3------3----3/5---5---5---5/7---7---7---5--------------|
B|--3------3--------3------3------3----3/5---5---5---5/7---7---7---5--------------|
G|3h4---4--------4------4------4----4/5---5---5---5/7---7---7---5-----------------|
D|3-------3--------3------3------3----3/5---5---5---5/7---7---7---5---------------|
A|--------------------------------------------------------------------------------|
E|--------------------------------------------------------------------------------|


"Wait a minute... Wait a minute!"
e|--3---5-------------------------------------------------------------|
B|--3---5-------------------------------------------------------------|
G|--4---5-------------------------------------------------------------|
D|--3---5-------------------------------------------------------------|
A|--------------------------------------------------------------------|
E|--------------------------------------------------------------------|

You'll never have to ask
I'll give you my sweet grass
I'm gonna mesmerize your ass
Just give me my first chance, it's gonna be the last
I'm gonna make you wanna stay

e|---9-------7--------7-------5------------------------------------------------|
B|---9-x4---8-x4----7-x4---6-x4------------------------------------------------|
G|--9-------9--------7--------7------------------------------------------------|
D|-----------------------------------------------------------------------------|
A|-----------------------------------------------------------------------------|
E|-----------------------------------------------------------------------------|

           Then back to the beginning, this is the whole song.
Tap to rate this tab
 
# A B C D E F G H I J K L M N O P Q R S T U V W X Y Z