Song name
# A B C D E F G H I J K L M N O P Q R S T U V W X Y Z

Devendra Banhart - Insect Eyes tab

   Insect Eyes- D. Banhart
Tabbed by: Dsever73
Email: Chefboy73@yahoo.com

Standard Tuning: Note: A guitar pick is NOT used for this song...

       (4X)                      (Strum down, up, down)
e|---------------|---------------|---------0------(0)------------------(0)--|
B|---------------|---------------|-------0---0-----0--------------------0---|
G|---------------|--b5-----------|-----5-------5---5--------2---4---2---2---|
D|---2-2-2-5---7-|-----7-5-------|---2------------------2h5---5---5---5-2---|
A|-0---------0---|---------7-5-0-|-0-------------0----0---------0------(0)--|
E|---------------|---------------|------------------------------------------|         (Basic)

  (Uptempo)
e|-----------3-3-2-----------------|
B|---------------------------6-6-5-|
G|------5-2-------------5-2--------|Repeat uptempo till end of song w/
D|---------------------------------|some slight variation.
A|-0-0-0-0-0-0-0-0-0-0-0-0-0-0-----|
E|---------------------------------|

Best of luck, and enjoy this is a great spooky song, I mean look what movie it was featured on.
PS. This is my first tab EVER, tell me what you think.

************************************

| /   slide up
| \   slide down
| h   hammer-on
| p   pull-off
| ~   vibrato
| +   harmonic
| x   Mute note
| b   Bend
| pb  Pre-bend
| br  Bend release
| pbr Pre-bend release
| brb Bend release bend

************************************
Tap to rate this tab
 
# A B C D E F G H I J K L M N O P Q R S T U V W X Y Z