Song name
# A B C D E F G H I J K L M N O P Q R S T U V W X Y Z

Devendra Banhart - Rejoicing In The Hands tab

Song: Rejoicing in the Hands
Artist: Devendra Banhart


Tuning: Open G (DGDGBD), capo 7th fret


The other tabs for this song are correct, but I like playing it this way
because I think it has a fuller sound, and it's a little easier.


D|---------------------------|---------------------------|
B|-------0-------------------|-------0-------------------|
G|-----0---2p0---------------|-----0---2p0---------------|
D|-0h2----------2-/-5-/-2--0-|-0h2----------2--0-----(0)-|
G|---------------------------|---------------------------|
D|---------------------------|---------------------------|


D|---------------------------|---------------------------|
B|-------0-------------------|-------0-------------------|
G|-----0---2p0---------------|-----0---2p0-------0-------|
D|-0h2----------2-/-5-/-2--0-|-0h2----------2-/-(5)------|
G|---------------------------|---------------------------|
D|---------------------------|---------------------------|


Throughout the song, let all the notes ring out and do not block the strings
that you are not plucking.  Since it's in an open tuning, the sympathetic
noise from those strings makes for a nice backdrop.
Tap to rate this tab
 
# A B C D E F G H I J K L M N O P Q R S T U V W X Y Z