Song name
# A B C D E F G H I J K L M N O P Q R S T U V W X Y Z

Devendra Banhart - Now That I Know tab

Standard Tuning
Capo on 3



|-----------------0------------0-------|----------------0------------0----------|
|-------5-------------5----------------|------5-------------5-------------------|
|-------------6------------6--------6--|------------0------------0--------0-----|
|-------7-------7-------7--------7-----|------4-------4-------4--------4--------|
|---7-------7-------7--------7---------|--0-------0-------0--------0------------|
|--------------------------------------|----------------------------------------|


|-----------------0------------0-------|----------------0------------0----------|
|-------3-------------3----------------|------2-------------2-------------------|
|-------------0------------0-------0---|------------2------------2--------2-----|
|-------4-------4-------4--------4-----|------2-------2-------2--------2--------|
|---0-------0-------0--------0---------|--0-------0-------0--------0------------|
|--------------------------------------|----------------------------------------|





|-----------------0------------0-------|----------------0------------0----------|
|-------5-------------5----------------|------5-------------5-------------------|
|-------------6------------6--------6--|------------0------------0--------0-----|
|-------7-------7-------7--------7-----|------4-------4-------4--------4--------|
|---7-------7-------7--------7---------|--0-------0-------0--------0------------|
|--------------------------------------|----------------------------------------|

|-----------------0--------------------|--------0----------------0--------------|
|-------3----------------------3---0---|--0h2-------2-----0h2--------2----------|
|-------------0-------0----0-----------|----------------2-----------------2-----|
|-------4-------4-------4--------4-----|------2-------2-------2--------2--------|
|---0-------0-------0--------0---------|--0-------0-------0--------0------------|
|--------------------------------------|----------------------------------------|
Tap to rate this tab
# A B C D E F G H I J K L M N O P Q R S T U V W X Y Z