Song name
# A B C D E F G H I J K L M N O P Q R S T U V W X Y Z

Devendra Banhart - Mi Negrita tab

e|-----------------------------------------------------------------|
B|--------------------------------------77-5-----5----77-5-----5---|
G|---7-6----66-7-9-9-7-6--66-7-9-9-7-6-------7-6---7-------7-6---7-|
D|-------5---------------------------------------------------------|
A|-----------------------------------------------------------------|
E|-----------------------------------------------------------------|


e|-------------------------------10-9-7----------|
B|--------------------------------------10-7-/12-|
G|--66-7-9-9-7-6--66-7-9-9-7-6-------------------|
D|-----------------------------------------------|
A|-----------------------------------------------|
E|-----------------------------------------------|
Tap to rate this tab
# A B C D E F G H I J K L M N O P Q R S T U V W X Y Z