Song name
# A B C D E F G H I J K L M N O P Q R S T U V W X Y Z

Devendra Banhart - Mi Negrita tab

Hey guys, this is my first tab ever, but i believe i got this right.
Ive seen the other tab but it sounds weird maybe because  they're trying to tab both guitars 
(at some point two guitars play the same riff at different times.)
Anyways this one is the correct.
Just listen to the song to get the rhythm.

Mi Negrita by Devendra Banhart.

e|--------------------------------------------------------------------------|
B|----------------55--------------55-----------77-5----------77-5-----------|
G|--7-6-----66-7----7-6-----66-7-----7-6-----------7-6--44-------7-6--44----|
D|------5-------------------------------------------------------------------|
A|--------------------------------------------------------------------------|
E|--------------------------------------------------------------------------|


e|-------------------------------------------------------------------------|
B|------------55-------------55--------15-14-12----------------------------|
G|------66-7----7-6----66-7-----7-6------------14--11/16-------------------|
D|-------------------------------------------------------------------------|
A|-------------------------------------------------------------------------|
E|-------------------------------------------------------------------------|



The riff at the end, can be also played like this. 
e|---------------10-9-7--------------------------|
B|----------------------10-7-/12-----------------|
G|-----------------------------------------------|
D|-----------------------------------------------|
A|-----------------------------------------------|
E|-----------------------------------------------|



Cheers.
-Hazour
Tap to rate this tab
# A B C D E F G H I J K L M N O P Q R S T U V W X Y Z