Song name
# A B C D E F G H I J K L M N O P Q R S T U V W X Y Z

Devendra Banhart - Rejoicing In The Hands tab

-----------------------------------------------------------------------------
     REJOICING IN THE HANDS - Devendra Banhart
-----------------------------------------------------------------------------
Tabbed by: Cody
Email:puddingguy@yahoo.com

Tuning: Standard

Good, simple song.
e|----------------------------------------------|
B|-------7----------------------------7---------|
G|-----7---9p7----------------------7---9p7-----|
D|-7h9---------9/12-12\9-9-7----7h9---------9-7-|
A|----------------------------------------------|
E|----------------------------------------------|

e|-----------------------------------------------|
B|-------7----------------------------7----------|
G|-----7---9p7----------------------7---9p7------|
D|-7h9---------9/12-12\9-9-7----7h9---------9-12-|
A|-----------------------------------------------|
E|-----------------------------------------------|
Tap to rate this tab
 
# A B C D E F G H I J K L M N O P Q R S T U V W X Y Z