Guitaretab - guitar tabs
Song name
# A B C D E F G H I J K L M N O P Q R S T U V W X Y Z

Devendra Banhart - Will Is My Friend tab

-------------------------------------------------------------------------------
	              WILL IS MY FRIEND - Devendra Banhart
-------------------------------------------------------------------------------
Tabbed by: girlwithacoin

Tuning: standard

Chords:
 C     G     F
 0     3     1
 1     0     1
 0     0     2
 2     0     3
 3     2     3
 x     3     1
[ Tab from: http://www.guitaretab.com/d/devendra-banhart/55419.html ]
e|----3--3--3--0-----------|----3--3--1--0----------|----1--1----------------|
B|----------------1-----1--|----------------0-------|----------1----1------1-|
G|-------------------0-----|------------------------|------------------1h2---|
D|-------------------------|------------------------|-3----------------------|
A|-------------------------|----------------------2-|-------3-----3----------|
E|-3--3--3--3--3-----------|-3--3--3--3--3-----3----|------------------------|

e|-------0----------------|
B|----------1-----1-----1-|
G|------------------------|
D|----2--2-----------2----|
A|-3-----------3----------|
E|------------------------|


...and repeat. vary the picking pattern/strum as desired.


| /  slide up
| \  slide down
| h  hammer-on
| p  pull-off
| ~  vibrato
| +  harmonic
| x  Mute note
===============================================================================
Related for Will Is My Friend tab
×
Will Is My Friend