Song name
# A B C D E F G H I J K L M N O P Q R S T U V W X Y Z

Devendra Banhart - Owl Eyes tab

Help us improve GuitareTab! Take a short survey!
Owl Eyes
Devendra Banhart

all naturally picked
ye old standard tuning (EADGBE)
quick like a bunny

-------0-----0-----0-----0-----0-----0-----0-----0-----|
-----3-----3-----3-----3-----3-----3-----3-----3-------|
---------4-----------4-----------4-----------4---------|
---5-----------5-----------5-----------5---------------|
-------------------------------------------------------|
-------------------------------------------------------|

						6secs
-------0-----0-----0-----0-----0-----0-----0-----0-----|
-----3-----3-----3-----3-----3-----3-----3-----3-------|
---------0-----------0---------------------------------|
---4-----------4-----------4-----0-----0-----0---------|
-------------------------------------------------------|
-------------------------------------------------------|
repeats more times than i'm willing to count


The Grandest Almond
Related for Owl Eyes tab