Guitaretab - guitar tabs
Song name
# A B C D E F G H I J K L M N O P Q R S T U V W X Y Z

Devendra Banhart - A Ribbon tab

A Ribbon

  This is the riff throughout with slight variations that you can
  reasonably easily pick up.
e ------3-----3---------3-----3---------1-----1---------1-----1------|
B ------3-----3---------3-----3---------3-----3---------3-----3------|
G ----3---3---3---3---3---3---3---3---2---2---2---2---2---2---2---2--|
D --0-------0---0---0-------0---0---0-------3---3---3-------3---3----|
A -------------------------------------------------------------------|
E -------------------------------------------------------------------|

e ---------------------------------------1p0-------1p0---------------|
B --0h2-----2---0h2-----2---2--2/5-----3-----3---------3---3---------|
G ------2-----2-----2-----2----------2---------2---------2-----------|
D --------2-----------2------------0-------------0-----------0-------|
A --0-------0---0-------0--------------------------------------------|
E -------------------------------------------------------------------|
[ Tab from: http://www.guitaretab.com/d/devendra-banhart/57673.html ]
    (1:09, 1:42)
e -----------------------5---------------------5---------------------|
B ---------------------3---------------------3-----------------------|
G --7--9--10-7---5--3------7--9--10-7---5~-------7--9-10-9----7-9----|
D -------------------------------------------------------------------|
A -------------------------------------------------------------------|
E -------------------------------------------------------------------|

e ------------5------------------------------------------------------|
B ----------3--------------------------------------------------------|
G --10--7------------------------------------------------------------|
D -------------------------------------------------------------------|
A -------------------------------------------------------------------|
E -------------------------------------------------------------------|

I'd like to sing to you, if you'd like me too
I'd like to sing to you, if you'd like me too
I'd like to sing, sing, sing, sing, sing to you

I'd like to dance with you, if you'd like me too
I'd like to dance with you, if you'd like me too
I'd like to dance, dance, dance, dance, dance with you

I'd like to sleep with you, if you'd like me too
I'd like to sleep with you, if you'd like me too
I'd like to sleep, sleep, sleep, sleep, sleep with you

Ribbons around the fumes, we'll be sleeping soon
Ribbons around the fumes, we'll be sleeping soon
Ribbons around those fumes


Music and Lyrics written by Devendra Banhart
Transcribed by ear, all my own work.
Good Luck
Campbell
Related for A Ribbon tab
Advertisement will be closed in 10 seconds