Guitaretab - guitar tabs
Song name
# A B C D E F G H I J K L M N O P Q R S T U V W X Y Z

Devendra Banhart - Heard Somebody Say tab

Heard Somebody Say
Devendra Banhart
Cripple Crow (awesome)
Tabbed by Howard
Email: witmachine@yahoo.com

Tuning: Standard

Dmaj7
X57675
C#m
X46654
Bm
X24432
A
X02220

Intro: Played on a piano

e|--5--5--5--5--5--5--5--5--4-----4-----4-----4--------|
B|-----------------------------5-----5-----5-----5-----|
G|--6--6--6--6--6--6--6--6--6-----6-----6-----6--------|
D|-----------------------------------------------------|
A|-----------------------------------------------------|
E|-----------------------------------------------------|
[ Tab from: http://www.guitaretab.com/d/devendra-banhart/67224.html ]
e|--2--2--2--2--2--2--2--2--0-----0-----0-----0--------|
B|-----------------------------2-----2-----2-----2-----|
G|--4--4--4--4--4--4--4--4--2-----2-----2-----2--------|
D|-----------------------------------------------------|
A|-----------------------------------------------------|
E|-----------------------------------------------------|


Words:

Dmaj7
I heard somebody say that 
    C#m
the war ended today,
    Bm                         A
but everybody knows itís going still.

   Dmaj7
On motherlands and motherseas,
C#m
hereís what we believe
Bm                            A
Itís simple; we donít want to kill.


Reprise:

Bm                            A
Itís simple; we donít want to kill.

Bm                            A
Itís simple; we donít want to kill.

Play A until the end.
Related for Heard Somebody Say tab