Guitaretab - guitar tabs
Song name
# A B C D E F G H I J K L M N O P Q R S T U V W X Y Z

Devendra Banhart - Insect Eyes tab

-------------------------------------------------------------------------------
			     INSECT EYES  Devendra Barhart
-------------------------------------------------------------------------------
Tabbed by: Kt
Email: k-restivo@hotmail.com

Tuning:
[ Tab from: http://www.guitaretab.com/d/devendra-banhart/83663.html ]
   Part 1       X3                                                         X2
e|----------------|---------------|--------0-------0-------------------------|
B|----------------|--1------------|----1p0---0h1-----------------1--------0--|
G|---------0---2--|----2-0--------|---2----------2-------0h2p0------2-0---2--|
D|---2-2-2--------|--------2-0----|--2-----------------2-------2----------2--|
A|-0---------0----|------------0--|------------------0------------------0----|
E|----------------|---------------|------------------------------------------|

   Part 2                           Little fill b/w repetitions of part 2
e|---------3-3-2-----------1-1-0--|------------------------------------------|
B|----1-1-------------1-1---------|------------------------------------------|
G|-------2---------------2--------|------------------------------------------|
D|--------------------------------|------------------------------------------|
A|-0-0-0-0-0-0-0-0-0-0-0-0-0-0-0--|--0-0-0-0-0-------------------------------|
E|--------------------------------|------------3-0-3-------------------------|


| /  slide up
| \  slide down
| h  hammer-on
| p  pull-off
| ~  vibrato
| +  harmonic
| x  Mute note
===============================================================================

Related for Insect Eyes tab