Song name
# A B C D E F G H I J K L M N O P Q R S T U V W X Y Z

Devendra Banhart - Todos Los Dolores tab

Tabbed by Jeff Sanderson           Cheers!
capo 2nd

    C               G   C  G        C               G      C
e|--------1-0--------------------|--------1-0-------------------|
b|--1--3------3--1--0---3--0-----|--1--3------3--1--0--3---1----|
g|--0---------0---------------0--|--0---------0------------0----|
d|--2---------------0------------|--2----------------------2----|
a|--3--3------3---------3--------|--3--3------3------------3----|
e|------------------3------3-----|------------------3-----------|

    G               C             G  repeat this part -(arcoira arcoria)
e|------------------------------|-----------------------------------------|
b|------------------------------|--0--0-0----0-0----0-0------------1--1---|
g|--0-0--0-0--2--0--0-----0h2-0-|--0--0-0----0-0----0-0-----0h2-0--0--0---|
d|------------------2-----------|-----0------0------0--------------2--2---|
a|---------------------3--------|-----0------0------0--------------3--3---|
e|--3----3----------------------|--3------3------3------3-----------------|

Todos los Dolores ya se van
Y el Graffiti dice Peter Pan
Y el Zoologico de arcoiris
Arcoira` Arcoira`

En la manana pienso en mi primo
Y todo lo espanol que desafino
Que dice cuando el sol sonrie
Sonreira` Sonreira`

Con tu cara de camello
Toma un bebe` tan bello
Cada casa casa tiene llave
por no saber por no saber
Tap to rate this tab
 
# A B C D E F G H I J K L M N O P Q R S T U V W X Y Z