Song name
# A B C D E F G H I J K L M N O P Q R S T U V W X Y Z

Deviate - The Forseeable Future tab

Po =  Pull off                               This is my first tab
H  =  Hammer-on                              so rate it :)
/  =  Slide
^  =  Bend
x  =  Dead note

INTRO:

e ----------------------------------------------------------------|
B ----------------------------------------------------------------|
G -------------3/5/3-3-4Po3---------------------------------------|   X2
D ------3h4h5---------------5Po4Po3-------------------------------|
A --3/5-----------------------------5-----------------------------|
E ----------------------------------------------------------------|


e ----------------------------------------------------------------|
B ----------------------------------------------------------------|
G ----------------------------------------------------------------|   X2
D ----------------------------------------------------------------|
A --3/7-7-6-5-----------------------------------------------------|
E -------------0-2-0-2-0-2-3-4------------------------------------|

e ----------------------------------------------------------------|
B ----------------------------------------------------------------|
G ----------------------------------------------------------------|   X2
D ----------5-7^-5------------------------------------------------|
A --3/7-5h7--------7-5--------------------------------------------|
E ---------------------8-5-8-5------------------------------------|

e -----------------------------------------------------------------|
B -----------------------------------------------------------------|
G -----------------------------------------------------------------|
D -----------------------------------------------------------------|
A -----------------------------------------------------------------|
E -2-2-2-2-2-2-2-2-2-2-2-2-2-2-2-2/9-9-9-9-9-9-9-9-9-9-9-9-9-9-9-9-|

VERSE:

e ----------------------------------------------------------------|
B ----------------------------------------------------------------|
G ----------------------------------------------------------------|  X2
D -2-----2-2---2-2---2-2---2-2------2-2---2-2---2-2---2-2---------|
A -2-----2-2---2-2---2-2---2-2------2-2---2-2---2-2---2-2---------|
E -0-----0-0---0-0---0-0---0-0------0-0---0-0---0-0---0-0---------|

e ----------------------------------------------------------------|
B ----------------------------------------------------------------|
G ----------------------------------------------------------------|   X3
D --5-5-5-5-x-x-x-x-x-x-x-x---------------------------------------|
A --5-5-5-5-x-x-x-x-x-x-x-x---------------------------------------|
E --3-3-3-3-x-x-x-x-x-x-x-x---------------------------------------|

e ----------------------------------------------------------------------|
B ----------------------------------------------------------------------|
G ----------------------------------------------------------------------|
D --5/10-10-10-10---10-10-10-10---10-10-10-10-10-10-10-10---10-10-10-10-|
A --3/8--8--8--8----8--8--8--8----8--8--8--8--8--8--8--8----8--8--8--8--|
E --3/8--8--8--8----8--8--8--8----8--8--8--8--8--8--8--8----8--8--8--8--|

e ----------------------------------------------------------------|
B ----------------------------------------------------------------|
G ----------------------------------------------------------------|
D --10-10-10-10---------------------------------------------------|
A --10-10-10-10---------------------------------------------------|
E --8--8--8--8----------------------------------------------------|

CHORUS:

e ----------------------------------------------------------------|
B ----------------------------------------------------------------|
G --10-10-10---10-10-10-10-10----10-10-10-10-10-10-10/8--8-8-8/6--|
D --10-10-10---10-10-10-10-10----10-10-10-10-10-10-10/8--8-8-8/6--|
A --8--8--8----8--8--8--8--8-----8--8--8--8--8--8--8/6---6-6-6/4--|
E ----------------------------------------------------------------|

e -----------------------------------------------------------------|
B -----------------------------------------------------------------|
G --6-6-6-6-6------------------------------------------------------|
D --6-6-6-6-6--6-6-6---6-6-6-6----6-6-6-6-6------4-4-4-4-4-4-4-4-4-|
A --4-4-4-4-4--6-6-6---6-6-6-6----6-6-6-6-6------4-4-4-4-4-4-4-4-4-|
E -------------4-4-4---4-4-4-4----4-4-4-4-4------2-2-2-2-2-2-2-2-2-|

e ----------------------------------------------------------------|
B ----------------------------------------------------------------|
G ----------------------------------------------------------------|
D --3-3-----------------------------------------------------------|
A --3-3-----------------------------------------------------------|
E --1-1-----------------------------------------------------------|

Chorus goes twice.Then it's just back to the intro,verse,chorus.. :)

e ----------------------------------------------------------------|
B ----------------------------------------------------------------|
G -------------3/5/3-3-4Po3---------------------------------------|   X2
D ------3h4h5---------------5Po4Po3-------------------------------|
A --3/5-----------------------------5-----------------------------|
E ----------------------------------------------------------------|


e ----------------------------------------------------------------|
B ----------------------------------------------------------------|
G ----------------------------------------------------------------|   X2
D ----------------------------------------------------------------|
A --3/7-7-6-5-----------------------------------------------------|
E -------------0-2-0-2-0-2-3-4------------------------------------|

e ----------------------------------------------------------------|
B ----------------------------------------------------------------|
G ----------------------------------------------------------------|   X2
D ----------5-7^-5------------------------------------------------|
A --3/7-5h7--------7-5--------------------------------------------|
E ---------------------8-5-8-5------------------------------------|

e -----------------------------------------------------------------|
B -----------------------------------------------------------------|
G -----------------------------------------------------------------|
D -----------------------------------------------------------------|
A -----------------------------------------------------------------|
E -2-2-2-2-2-2-2-2-2-2-2-2-2-2-2-2/9-9-9-9-9-9-9-9-9-9-9-9-9-9-9-9-|

Hope you like it :D
Tap to rate this tab
# A B C D E F G H I J K L M N O P Q R S T U V W X Y Z