Song name
# A B C D E F G H I J K L M N O P Q R S T U V W X Y Z

Deviates - Come With Me tab

Song: Come with me
Artist: Deviates
Album: Time is Distance. Also on Punk0rama 2001
Tabber: ntmiollnir

Standard Tuning

Intro

e-------------------------------------------------------------------
B-------------------------------------------------------------------
G-----------------------------------2-0-----------------------------
D----4-4-4-2-4-2-4-0----4-4-4-2-4-0----------4-4-4-2-4-2-4-0--------
A-2------------------2-------------------2--------------------------
E-------------------------------------------------------------------



e---------------------------
B---------------------------
G---------------------------
D----4-4-4-0-2-0------------
A-2---------------4-0-------
E---------------------------

(drums and bass start playing)

e-------------------------------------------------------------------
B-------------------------------------------------------------------
G-----------------------------------2-0-----------------------------
D----4-4-4-2-4-2-4-0----4-4-4-2-4-2--------4-4-4-2-4-2-4-0----4-4-4-
A--2------------------2------------------2------------------2-------
E-------------------------------------------------------------------



e-------------------------------------------------------------------
B-------------------------------------------------------------------
G------------------------------------------0-2----------------------
D--2-4-5-5---4-4-4-2-4-2-4-0----4-4-4-2-4-2-------4-4-4-2-4-2-4-2---
A----------2------------------2-----------------2-------------------
E-------------------------------------------------------------------



e-------------------------------------------------------------------
B-------------------------------------------------------------------
G------------2-0----------------------------------------------------
D----4-4-4-2--------------------------------------------------------
A--2----------------------------------------------------------------
E-------------------------------------------------------------------

Verse one

e-------------------------------------------------------------------
B-------------------------------------------------------------------
G-------------------------------------------------------------------
D--4x16---------7x16------------------------------------------------
A--2x16---5x16--5x16--7x16------------------------------------------
E---------3x16--------5x16------------------------------------------



Chorus

e-------------------------------------------------------------------
B-------------------------------------------------------------------
G-------------------------------------------------------------------
D-4-44444--7-77777-----------------77-------4-x-2-x-4-x-2-5---------
A-2-22222--5-55555--4-444-5--4-444-55-------2-x-0-x-2-x-0-3---------
E-------------------2-222-3--2-222----------------------------------




3rd Verse

e-------------------------------------------------------------------
B-------------------------------------------------------------------
G-------------------------------------------------------------------
D-4---4-4-4-4-4---4-4--4-4-4-4-4-----4----------7-------------------
A-2---2-2-2-2-2---2-2--2-2-2-2-2-----2---5--4---5--7----------------
E----------------------------------------3--2------5----------------
      p.m........      .........    That palm muting pattern uses these
                                    chords throughout the 3rd verse.

       more of the 3rd verse.

e---------------------------------------------------------------------
B---------------------------------------------------------------------
G---------------------------------------------------------------------
D--4444--2-4-4---4444-2-4-4------2-4-4-----2-4-4-----2-4-4------2-4-4-
A--2222----------2222--------5555------5555------4444------4444-------
E----------------------------3333------3333------2222------2222-------
   p.m..         ....        ....      ....      ....      ....


hope you enjoy it
Tap to rate this tab
 
# A B C D E F G H I J K L M N O P Q R S T U V W X Y Z