Guitaretab - guitar tabs
Song name
# A B C D E F G H I J K L M N O P Q R S T U V W X Y Z

Devildriver - Clouds Over California tab

*****************************PLEASE READ************************************

okay first off. this is literally my first tab, i have a little over a year
of playing expierience, so cut me some slack eh? i dont need some 12 year
old prodigy reiterating the fact that i suck. i already know i do :) second
ive seen comments on here where people get irate about proper tuning. the
thing is i dont know devildriver enough to know what they play in, so ill
let other people argue over that. im playing this with all strings a full
step down (i left the tuning thing blank because i honestly dont know what
letter a full step down is). if you think it should be in a different
tuning move the notes up/down however many steps youd like, its not that
hard. lastly id like to thank shadesofanger for helping me to find starting
point for this. positive criticism please? :)

*****************************PLEASE READ************************************

SOLO TAB

Clouds Over California
DevilDriver
The Last Kind Words 2007

Legend:
h- hammer on
p- pull off
\- slide down
T- tap
b- bend
~- vibrato

2:49 - 2:52

|--15-15-17-17-18-18-17-17-15-15-13-13-15-15-13-13-12-12-13-13-13-13-13
|----------------------------------------------------------------------
|----------------------------------------------------------------------
|----------------------------------------------------------------------
|----------------------------------------------------------------------
|----------------------------------------------------------------------

-13-12-12-12-12-10-10-10-10--|
-----------------------------|
-----------------------------|
-----------------------------|
-----------------------------|
-----------------------------|

2:52  2:55
[ Tab from: http://www.guitaretab.com/d/devildriver/178275.html ]
|--17-17-17-17-17p13-13-13-13-13-13\12--12-12-12-12-12-
|-------------------------------------------------------
|-------------------------------------------------------
|-------------------------------------------------------
|-------------------------------------------------------
|-------------------------------------------------------

-------------13-17-18--|
----------15-----------|
-------14--------------|
----15-----------------|
-17--------------------|
-----------------------|

2:55  3:02

   T           T           T           T           T           T
|--17p13p10h13h17p13p10h13h18p13p10h13h18p13p10h13h17p13p10h13h17p13p10
|----------------------------------------------------------------------
|----------------------------------------------------------------------
|----------------------------------------------------------------------
|----------------------------------------------------------------------
|----------------------------------------------------------------------

    T          T          T          T          T          T 
h13h16p12p9h12h16p12p9h12h18p12p9h12h18p12p9h12h18p12p9h12h18p12p9h12--
-----------------------------------------------------------------------
-----------------------------------------------------------------------
-----------------------------------------------------------------------
-----------------------------------------------------------------------
-----------------------------------------------------------------------

--12b(13)--10~~~--| the vibrato lasts for a little while, the other guitar
------------------| just plays over it. i dont know what hes doing (dip,
------------------| dive bomb, whatever else there is) my rip-off fender 
------------------| doesnt have a tremolo, sorry :\
------------------|
------------------|
Related for Clouds Over California tab