Song name
# A B C D E F G H I J K L M N O P Q R S T U V W X Y Z

Devildriver - Horn Of Betrayal tab

Help us improve GuitareTab! Take a short survey!
could be the tighest intro ever, im glad i was the first to tab it out.... super duper cool


           4X
d|---------------------|
a|---------------------|
f|-7---10---9----------|
c|-------------10------|
a|---------------------|
c|---0----0---0---0----|
      *  *    *  *

         4X
d|----------------------|
a|----------------------|
f|-5---9---7------------|
c|------------8---------|
g|----------------------|
c|---0---0---0--0-------|
    *    *   *    *


   8X
d|------------------------|
a|------------------------|
f|--10---14----12---------|
c|------------------14----|
g|------------------------|
c|-----0-----0----0----0--|
     *     *     *     *
Related for Horn Of Betrayal tab