Song name
# A B C D E F G H I J K L M N O P Q R S T U V W X Y Z

Devildriver - Clouds Over California tab

#----------------------------------PLEASE NOTE---------------------------------#
#This file is the author's own work and represents their interpretation of the #
#song. You may only use this file for private study, scholarship, or research. #
#------------------------------------------------------------------------------#





Gtr I (D A D G B E) - 'GUITAR ONE'
Gtr II (D A D G B E) - 'GUITAR TWO'


  Q=180
 4/4
  Gtr I
  PM------------------------------------------------------------------|
|-----------------|-----------------|-----------------|------------------|
|-----------------|-----------------|-----------------|------------------|
|-----------------|-----------------|-----------------|------------------|
|-----------------|-----------------|-----------------|------------------|
|-0-0-0-0-0-0-0-0-|-0-0-0-0-0-0-0-0-|-0-0-0-0-0-0-0-0-|-0-0-0-0-0-0-0-0--|
|-0-0-0-0-0-0-0-0-|-0-0-0-0-0-0-0-0-|-0-0-0-0-0-0-0-0-|-0-0-0-0-0-0-0-0--|


    PM------------------------------------------------|
                                                                          3x
||------------------|-----------------|-----------------|-----------------||
||o-----------------|-----------------|-----------------|----------------o||
||------------------|-----------------|-----------------|-----------------||
||------------------|-----------------|-----------------|-----5-------3---||
||o-0-0-0-0-0-0-0-0-|-0-0-0-0-0-0-0-0-|-0-0-0-0-0-0-0-0-|---5---5---3---3o||
||--0-0-0-0-0-0-0-0-|-0-0-0-0-0-0-0-0-|-0-0-0-0-0-0-0-0-|-5-------3-------||


  Gtr II
|-10-------10-------10----|-12h13-13-13-12h13-13-13-|
|----10-10----10-10----10-|-------------------------|
|-------------------------|-------------------------|
|-------------------------|-------------------------|
|-------------------------|-------------------------|
|-------------------------|-------------------------|
|
| Gtr I
|  PM------------------|
|-------------------------|-------------------------|
|-------------------------|-------------------------|
|-------------------------|-------------------------|
|-------------------------|--------5-----------3----|
|--0--0--0--0--0--0--0--0-|-----5-----5-----3-----3-|
|--0--0--0--0--0--0--0--0-|--5-----------3----------|


|-10-------10-------10----|-12-13-12-10-12-13-12-10-|
|----10-10----10-10----10-|-------------------------|
|-------------------------|-------------------------|
|-------------------------|-------------------------|
|-------------------------|-------------------------|
|-------------------------|-------------------------|
|
|  PM------------------|
|-------------------------|-------------------------|
|-------------------------|-------------------------|
|-------------------------|-------------------------|
|-------------------------|--------5-----------3----|
|--0--0--0--0--0--0--0--0-|-----5-----5-----3-----3-|
|--0--0--0--0--0--0--0--0-|--5-----------3----------|


|-10-------10-------10----|-10-------10-------10----|
|----10-10----10-10----10-|----10-10----10-10----10-|
|-------------------------|-------------------------|
|-------------------------|-------------------------|
|-------------------------|-------------------------|
|-------------------------|-------------------------|
|
|  PM------------------------------------------------
|-------------------------|-------------------------|
|-------------------------|-------------------------|
|-------------------------|-------------------------|
|-------------------------|-------------------------|
|--0--0--0--0--0--0--0--0-|--0--0--0--0--0--0--0--0-|
|--0--0--0--0--0--0--0--0-|--0--0--0--0--0--0--0--0-|


|-12---13-----------|---------|
|-------------------|-5b6=====|
|-------------------|---------|
|-------------------|---------|
|-------------------|---------|
|-------------------|---------|
|
|-----------------|
|-------------------|---------|
|-------------------|-5b6=====|
|-------------------|---------|
|-------------------|---------|
|--0-0--0-0-0-0-0-0-|---------|
|--0-0--0-0-0-0-0-0-|---------|


    Gtrs I, II
    PM----|    PM|    PM|
||------------------------------|
||o-----------------------------|
||------------------------------|
||------------------------------|
||o-----------------------------|
||--0-0-0-0-12-0-0-12-0-0-12h14-|


  PM----|    PM|    PM|         PM----|    PM|    PM|
|-----------------------------|-----------------------------|
|-----------------------------|-----------------------------|
|-----------------------------|-----------------------------|
|-----------------------------|-----------------------------|
|-----------------------------|-----------------------------|
|-0-0-0-0-12-0-0-14-0-0-14h15-|-0-0-0-0-14-0-0-15-0-0-15h17-|


  1.
   PM------------------------------------------------
|--------------------------------------------------||
|-------------------------------------------------o||
|--------------------------------------------------||
|--------------------------------------------------||
|-------------13-13-13-13-------------------------o||
|-15-15-15-15-------------13-13-13-13-13-13-13-13--||


  2.
 ----------------------------------------------|
|---------------------------------------------------|
|---------------------------------------------------|
|---------------------------------------------------|
|---------------------------------------------------|
|---------------------------------------------------|
|-15-15-15-15-14-14-14-14-13-13-13-13-13-13-13-13---|


  PM----|    PM|    PM|         PM----|    PM|    PM|
|-----------------------------|-----------------------------|
|-----------------------------|-----------------------------|
|-----------------------------|-----------------------------|
|-----------------------------|-----------------------------|
|-----------------------------|-----------------------------|
|-0-0-0-0-12-0-0-12-0-0-12h14-|-0-0-0-0-12-0-0-14-0-0-14h15-|


  PM----|    PM|    PM|
|------------------------------|
|------------------------------|
|------------------------------|
|------------------------------|
|------------------------------|
|-0-0-0-0-14-0-0-15-0-0-15h17--|


  1.
   PM----------------------------------------------
|-------------------------------------------------|
|-------------------------------------------------|
|-------------------------------------------------|
|-------------------------------------------------|
|-------------13-13-13-13-------------------------|
|-15-15-15-15-------------13-13-13-13-13-13-13-13-|


  2.
 ----------------------------------------------|
|---------------------------------------------------|
|---------------------------------------------------|
|---------------------------------------------------|
|---------------------------------------------------|
|---------------------------------------------------|
|-15-15-15-15-14-14-14-14-13-13-13-13-13-13-13-13---|


  PM----|   PM|   PM|       PM----|   PM|   PM|
|-------------------------|--------------------------|
|-------------------------|--------------------------|
|-------------------------|--------------------------|
|-------------------------|--------------------------|
|---------7-----9-----7h9-|---------7-----9-----9h10-|
|-0-0-0-0---0-0---0-0-----|-0-0-0-0---0-0---0-0------|


  PM----|   PM|    PM|         PM----|   PM|    PM|
|----------------------------|----------------------------|
|----------------------------|----------------------------|
|----------------------------|----------------------------|
|----------------------------|----------------------------|
|---------9-----10-----10h12-|---------9-----10-----10h12-|
|-0-0-0-0---0-0----0-0-------|-0-0-0-0---0-0----0-0-------|


      Gtrs I, II
  PM----|    PM|    PM|         PM----|    PM|    PM|
|-----------------------------|-----------------------------|
|-----------------------------|-----------------------------|
|-----------------------------|-----------------------------|
|-----------------------------|-----------------------------|
|-----------------------------|-----------------------------|
|-0-0-0-0-12-0-0-12-0-0-12h14-|-0-0-0-0-12-0-0-14-0-0-14h15-|


  PM----|    PM|    PM|          PM------------------------------------------|
|-----------------------------|----------------------------------------------------|
|-----------------------------|----------------------------------------------------|
|-----------------------------|----------------------------------------------------|
|-----------------------------|----------------------------------------------------|
|-----------------------------|-------------13-13-13-13----------------------------|
|-0-0-0-0-14-0-0-15-0-0-15h17-|-15-15-15-15-------------13-13-13-13-13-13-13-13----|


  PM----|    PM|    PM|         PM----|    PM|    PM|
|-----------------------------|-----------------------------|
|-----------------------------|-----------------------------|
|-----------------------------|-----------------------------|
|-----------------------------|-----------------------------|
|-----------------------------|-----------------------------|
|-0-0-0-0-12-0-0-12-0-0-12h14-|-0-0-0-0-12-0-0-14-0-0-14h15-|


  PM----|    PM|    PM|          PM------------------------------------------|
|-----------------------------|----------------------------------------------------|
|-----------------------------|----------------------------------------------------|
|-----------------------------|----------------------------------------------------|
|-----------------------------|----------------------------------------------------|
|-----------------------------|----------------------------------------------------|
|-0-0-0-0-14-0-0-15-0-0-15h17-|-15-15-15-15-14-14-14-14-13-13-13-13-13-13-13-13----|


  PM----|    PM|    PM|         PM----|    PM|    PM|
|-----------------------------|-----------------------------|
|-----------------------------|-----------------------------|
|-----------------------------|-----------------------------|
|-----------------------------|-----------------------------|
|-----------------------------|-----------------------------|
|-0-0-0-0-12-0-0-12-0-0-12h14-|-0-0-0-0-12-0-0-14-0-0-14h15-|


  PM----|    PM|    PM|          PM------------------------------------------|
|-----------------------------|----------------------------------------------------|
|-----------------------------|----------------------------------------------------|
|-----------------------------|----------------------------------------------------|
|-----------------------------|----------------------------------------------------|
|-----------------------------|-------------13-13-13-13----------------------------|
|-0-0-0-0-14-0-0-15-0-0-15h17-|-15-15-15-15-------------13-13-13-13-13-13-13-13----|


  PM----|   PM|   PM|       PM----|   PM|   PM|
|-------------------------|--------------------------|
|-------------------------|--------------------------|
|-------------------------|--------------------------|
|-------------------------|--------------------------|
|---------7-----9-----7h9-|---------7-----9-----9h10-|
|-0-0-0-0---0-0---0-0-----|-0-0-0-0---0-0---0-0------|


  PM----|   PM|    PM|         PM----|   PM|    PM|
|----------------------------|-------------------------------||
|----------------------------|-------------------------------||
|----------------------------|-------------------------------||
|----------------------------|-------------------------------||
|---------9-----10-----10h12-|---------9-----10-----10h12----||
|-0-0-0-0---0-0----0-0-------|-0-0-0-0---0-0----0-0----------||


  Gtrs I, II
|---------------------|-----------------|-----------------|-----------------|
|---------------------|-----------------|-----------------|-----------------|
|---------------------|-----------------|-----------------|-----------------|
|---------------------|-----------------|-----------------|-----5-------3---|
|---------------------|-----------------|-----------------|---5---5---3---3-|
|-12-0h12-0h12-0h12-0-|-8-0h8-0h8-0h8-0-|-6-0h6-0h6-0h6-0-|-5-------3-------|


  Gtr II
|-10----------------10----------------10----------|
|-------10----10----------10----10----------10----|
|-------------------------------------------------|
|-------------------------------------------------|
|-------------------------------------------------|
|-------------------------------------------------|
|
| Gtr I
|  PM----------------------------------------------
|-------------------------------------------------|
|-------------------------------------------------|
|-------------------------------------------------|
|-------------------------------------------------|
|-------------------------------------------------|
|-12-12-12-12-12-12-12-12-12-12-12-12-14-14-14-14-|


|-12h===13----13----13----12h===13----13----13----|
|-------------------------------------------------|
|-------------------------------------------------|
|-------------------------------------------------|
|-------------------------------------------------|
|-------------------------------------------------|
|
|----------------------------------------------|
|-------------------------------------------------|
|-------------------------------------------------|
|-------------------------------------------------|
|-------------------------------------------------|
|-------------------------------------------------|
|-12-12-12-12-14-14-14-14-12-12-12-12-15-15-15-15-|


|-10----------------10----------------10----------|
|-------10----10----------10----10----------10----|
|-------------------------------------------------|
|-------------------------------------------------|
|-------------------------------------------------|
|-------------------------------------------------|
|
|  PM----------------------------------------------
|-------------------------------------------------|
|-------------------------------------------------|
|-------------------------------------------------|
|-------------------------------------------------|
|-------------------------------------------------|
|-12-12-12-12-14-14-14-14-15-15-15-15-17-17-17-17-|


|-12----13----12----10----12----13----12----10------|
|---------------------------------------------------|
|---------------------------------------------------|
|---------------------------------------------------|
|---------------------------------------------------|
|---------------------------------------------------|
|
|----------------------------------------------|
|---------------------------------------------------|
|---------------------------------------------------|
|---------------------------------------------------|
|---------------------------------------------------|
|-------------13-13-13-13---------------------------|
|-15-15-15-15-------------13-13-13-13-13-13-13-13---|


|-10----------------10----------------10----------|
|-------10----10----------10----10----------10----|
|-------------------------------------------------|
|-------------------------------------------------|
|-------------------------------------------------|
|-------------------------------------------------|
|
|  PM----------------------------------------------
|-------------------------------------------------|
|-------------------------------------------------|
|-------------------------------------------------|
|-------------------------------------------------|
|-------------------------------------------------|
|-12-12-12-12-12-12-12-12-12-12-12-12-14-14-14-14-|


|-12h===13----13----13----12h===13----13----13------|
|---------------------------------------------------|
|---------------------------------------------------|
|---------------------------------------------------|
|---------------------------------------------------|
|---------------------------------------------------|
|
|----------------------------------------------|
|---------------------------------------------------|
|---------------------------------------------------|
|---------------------------------------------------|
|---------------------------------------------------|
|---------------------------------------------------|
|-12-12-12-12-14-14-14-14-12-12-12-12-15-15-15-15---|


|-10----------------10----------------10----------|
|-------10----10----------10----10----------10----|
|-------------------------------------------------|
|-------------------------------------------------|
|-------------------------------------------------|
|-------------------------------------------------|
|
|  PM----------------------------------------------
|-------------------------------------------------|
|-------------------------------------------------|
|-------------------------------------------------|
|-------------------------------------------------|
|-------------------------------------------------|
|-12-12-12-12-14-14-14-14-15-15-15-15-17-17-17-17-|


|-12----13----12----10----12----13----12----10------|
|---------------------------------------------------|
|---------------------------------------------------|
|---------------------------------------------------|
|---------------------------------------------------|
|---------------------------------------------------|
|
|----------------------------------------------|
|---------------------------------------------------|
|---------------------------------------------------|
|---------------------------------------------------|
|---------------------------------------------------|
|---------------------------------------------------|
|-15-15-15-15-13-13-13-13-12-12-12-12-12-12-12-12---|


|-10-------10-------10----|-10--------10-------10----|-12---13------|---------|
|----10-10----10-10----10-|-----10-10----10-10----10-|--------------|-5b6=====|
|-------------------------|--------------------------|--------------|---------|
|-------------------------|--------------------------|--------------|---------|
|-------------------------|--------------------------|--------------|---------|
|-------------------------|--------------------------|--------------|---------|
|
|-------------------------|--------------------------|--------------|---------|
|-------------------------|--------------------------|--------------|-5b6=====|
|-------------------------|--------------------------|--------------|---------|
|--0----------------------|-(0)----------------------|-(0)----------|---------|
|--0----------------------|-(0)----------------------|-(0)----------|---------|
|--0----------------------|-(0)----------------------|-(0)----------|---------|


  Gtrs I, II
  PM----|    PM|    PM|         PM----|    PM|    PM|
|-----------------------------|-----------------------------|
|-----------------------------|-----------------------------|
|-----------------------------|-----------------------------|
|-----------------------------|-----------------------------|
|-----------------------------|-----------------------------|
|-0-0-0-0-12-0-0-12-0-0-12h14-|-0-0-0-0-12-0-0-14-0-0-14h15-|


  PM----|    PM|    PM|          PM------------------------------------------|
|-----------------------------|----------------------------------------------------|
|-----------------------------|----------------------------------------------------|
|-----------------------------|----------------------------------------------------|
|-----------------------------|----------------------------------------------------|
|-----------------------------|-------------13-13-13-13----------------------------|
|-0-0-0-0-14-0-0-15-0-0-15h17-|-15-15-15-15-------------13-13-13-13-13-13-13-13----|


  PM----|    PM|    PM|         PM----|    PM|    PM|
|-----------------------------|-----------------------------|
|-----------------------------|-----------------------------|
|-----------------------------|-----------------------------|
|-----------------------------|-----------------------------|
|-----------------------------|-----------------------------|
|-0-0-0-0-12-0-0-12-0-0-12h14-|-0-0-0-0-12-0-0-14-0-0-14h15-|


  PM----|    PM|    PM|          PM------------------------------------------|
|-----------------------------|----------------------------------------------------|
|-----------------------------|----------------------------------------------------|
|-----------------------------|----------------------------------------------------|
|-----------------------------|----------------------------------------------------|
|-----------------------------|----------------------------------------------------|
|-0-0-0-0-14-0-0-15-0-0-15h17-|-15-15-15-15-14-14-14-14-13-13-13-13-13-13-13-13----|


  PM----|           PM|         PM----|    PM|    PM|
|-----------------------------|-----------------------------|
|-----------------------------|-----------------------------|
|-----------------------------|-----------------------------|
|-----------------------------|-----------------------------|
|-----------------------------|-----------------------------|
|-0-0-0-0-12-0-0-12-0-0-12h14-|-0-0-0-0-12-0-0-14-0-0-14h15-|


  PM----|    PM|    PM|          PM------------------------------------------|
|-----------------------------|----------------------------------------------------|
|-----------------------------|----------------------------------------------------|
|-----------------------------|----------------------------------------------------|
|-----------------------------|----------------------------------------------------|
|-----------------------------|-------------13-13-13-13----------------------------|
|-0-0-0-0-14-0-0-15-0-0-15h17-|-15-15-15-15-------------13-13-13-13-13-13-13-13----|


  PM----|   PM|   PM|       PM----|   PM|   PM|
|-------------------------|--------------------------|
|-------------------------|--------------------------|
|-------------------------|--------------------------|
|-------------------------|--------------------------|
|---------7-----9-----7h9-|---------7-----9-----9h10-|
|-0-0-0-0---0-0---0-0-----|-0-0-0-0---0-0---0-0------|


  PM----|   PM|    PM|         PM----|   PM|    PM|
|----------------------------|-------------------------------|
|----------------------------|-------------------------------|
|----------------------------|-------------------------------|
|----------------------------|-------------------------------|
|---------9-----10-----10h12-|---------9-----10-----10h12----|
|-0-0-0-0---0-0----0-0-------|-0-0-0-0---0-0----0-0----------|


  Gtrs I, II
|---------------------|-----------------|-----------------|-----------------|
|---------------------|-----------------|-----------------|-----------------|
|---------------------|-----------------|-----------------|-----------------|
|---------------------|-----------------|-----------------|-----5-------3---|
|---------------------|-----------------|-----------------|---5---5---3---3-|
|-12-0h12-0h12-0h12-0-|-8-0h8-0h8-0h8-0-|-6-0h6-0h6-0h6-0-|-5-------3-------|


    Gtr II
||---10----------------10----------------10----------|
||o--------10----10----------10----10----------10----|
||---------------------------------------------------|
||---------------------------------------------------|
||o--------------------------------------------------|
||---------------------------------------------------|
|
|   Gtr I
|     PM----------------------------------------------
||---------------------------------------------------|
||o--------------------------------------------------|
||---------------------------------------------------|
||---------------------------------------------------|
||o--------------------------------------------------|
||---12-12-12-12-12-12-12-12-12-12-12-12-14-14-14-14-|


|-12h===13----13----13----12h===13----13----13----|
|-------------------------------------------------|
|-------------------------------------------------|
|-------------------------------------------------|
|-------------------------------------------------|
|-------------------------------------------------|
|
|----------------------------------------------|
|-------------------------------------------------|
|-------------------------------------------------|
|-------------------------------------------------|
|-------------------------------------------------|
|-------------------------------------------------|
|-12-12-12-12-14-14-14-14-12-12-12-12-15-15-15-15-|


|-10----------------10----------------10----------|
|-------10----10----------10----10----------10----|
|-------------------------------------------------|
|-------------------------------------------------|
|-------------------------------------------------|
|-------------------------------------------------|
|
|  PM----------------------------------------------
|-------------------------------------------------|
|-------------------------------------------------|
|-------------------------------------------------|
|-------------------------------------------------|
|-------------------------------------------------|
|-12-12-12-12-14-14-14-14-15-15-15-15-17-17-17-17-|


|-12----13----12----10----12----13----12----10------|
|---------------------------------------------------|
|---------------------------------------------------|
|---------------------------------------------------|
|---------------------------------------------------|
|---------------------------------------------------|
|
|----------------------------------------------|
|---------------------------------------------------|
|---------------------------------------------------|
|---------------------------------------------------|
|---------------------------------------------------|
|-------------13-13-13-13---------------------------|
|-15-15-15-15-------------13-13-13-13-13-13-13-13---|


|-10----------------10----------------10----------|
|-------10----10----------10----10----------10----|
|-------------------------------------------------|
|-------------------------------------------------|
|-------------------------------------------------|
|-------------------------------------------------|
|
|  PM----------------------------------------------
|-------------------------------------------------|
|-------------------------------------------------|
|-------------------------------------------------|
|-------------------------------------------------|
|-------------------------------------------------|
|-12-12-12-12-12-12-12-12-12-12-12-12-14-14-14-14-|


|-12h===13----13----13----12h===13----13----13------|
|---------------------------------------------------|
|---------------------------------------------------|
|---------------------------------------------------|
|---------------------------------------------------|
|---------------------------------------------------|
|
|----------------------------------------------|
|---------------------------------------------------|
|---------------------------------------------------|
|---------------------------------------------------|
|---------------------------------------------------|
|---------------------------------------------------|
|-12-12-12-12-14-14-14-14-12-12-12-12-15-15-15-15---|


|-10----------------10----------------10----------|
|-------10----10----------10----10----------10----|
|-------------------------------------------------|
|-------------------------------------------------|
|-------------------------------------------------|
|-------------------------------------------------|
|
|  PM----------------------------------------------
|-------------------------------------------------|
|-------------------------------------------------|
|-------------------------------------------------|
|-------------------------------------------------|
|-------------------------------------------------|
|-12-12-12-12-12-12-12-12-12-12-12-12-14-14-14-14-|


|-12---13----12----10----12----13----12----10-----||
|------------------------------------------------o||
|-------------------------------------------------||
|-------------------------------------------------||
|------------------------------------------------o||
|-------------------------------------------------||
|
|---------------------------------------------|
|-------------------------------------------------||
|------------------------------------------------o||
|-------------------------------------------------||
|-------------------------------------------------||
|------------------------------------------------o||
|-15-5-15-15-14-14-14-14-13-13-13-13-13-13-13-13--||


|-10------------------|-----------------------|
|---------------------|-----------------------|
|---------------------|-----------------------|
|---------------------|-----------------------|
|---------------------|-----------------------|
|---------------------|-----------------------|
|
|  PMPM----------------------------------------
|---------------------|-----------------------|
|---------------------|-----------------------|
|---------------------|-----------------------|
|---------------------|-----------------------|
|---------------------|-----------------------|
|--0-0-0-0-0--0-0-0-0-|-0--0-0-0-0-0-0-0-0-0--|


|-----------------------|--------------------|
|-----------------------|--------------------|
|-----------------------|--------------------|
|-----------------------|--------------------|
|-----------------------|--------------------|
|-----------------------|--------------------|
|
|-----------------------------------------|
|-----------------------|--------------------|
|-----------------------|--------------------|
|-----------------------|--------------------|
|-----------------------|--------------------|
|-----------------------|--------------------|
|-0-0-0-0-0--0-0-0-0-0--|-0-0-0-0-0-0-0-0-0--|


    Gtr I
             PM----|          PM----|            PM----|    PM|
                                                                        4x
||------------------------------------|---------------------------------||
||o-----------------------------------|--------------------------------o||
||------------------------------------|---------------------------------||
||------------------------------------|---------------------------------||
||o-----------------------------------|--------------------------------o||
||--12-------0-0-0-0-8h==12---0-0-0-0-|-8h==12---0-0-0-0-15-0-0-14-15---||
|
|   Gtr II
|    PMPM------------------------------------------------|
|                                                                       4x
||------------------------------------|---------------------------------||
||o-----------------------------------|--------------------------------o||
||------------------------------------|---------------------------------||
||------------------------------------|---------------------------------||
||o-----------------------------------|--------------------------------o||
||---0-0-0-0-0-------0-0--0-0-0-------|-0-0--0-0-0-0-0-0--0-------------||


  Gtr II
|------------------------------|--------------------------------|
|-15b16========================|=15b16==========================|
|------------------------------|--------------------------------|
|------------------------------|--------------------------------|
|------------------------------|--------------------------------|
|------------------------------|--------------------------------|
|
| Gtr I
|         PM----|      PM----|             PM----|    PM|
|------------------------------|--------------------------------|
|------------------------------|--------------------------------|
|------------------------------|--------------------------------|
|------------------------------|--------------------------------|
|------------------------------|--------------------------------|
|-12------0-0-0-0-8h12-0-0-0-0-|--8h====12-0-0-0-0-15-0-0-14-15-|


|------------------------------|-------------------------------|
|-15b16========================|=15b16-------------------------|
|------------------------------|-------------------------------|
|------------------------------|-------------------------------|
|------------------------------|-------------------------------|
|------------------------------|-------------------------------|
|
|         PM----|      PM----|            PM----|    PM|
|------------------------------|-------------------------------|
|------------------------------|-------------------------------|
|------------------------------|-------------------------------|
|------------------------------|-------------------------------|
|------------------------------|-------------------------------|
|-12------0-0-0-0-8h12-0-0-0-0-|--8h===12-0-0-0-0-15-0-0-14h15-|


|-----------------------------|-------------------------------|
|-17b18-----------------------|-17b18-------------------------|
|-----------------------------|-------------------------------|
|-----------------------------|-------------------------------|
|-----------------------------|-------------------------------|
|-----------------------------|-------------------------------|
|
|        PM----|      PM----|            PM----|    PM|
|-----------------------------|-------------------------------|
|-----------------------------|-------------------------------|
|-----------------------------|-------------------------------|
|-----------------------------|-------------------------------|
|-----------------------------|-------------------------------|
|-12-----0-0-0-0-8h12-0-0-0-0-|--8h===12-0-0-0-0-15-0-0-14-15-|


|------------------------------|-------------------------------|
|-20b21========================|=20b21-------------------------|
|------------------------------|-------------------------------|
|------------------------------|-------------------------------|
|------------------------------|-------------------------------|
|------------------------------|-------------------------------|
|
|         PM----|      PM----|            PM----|    PM|
|------------------------------|-------------------------------|
|------------------------------|-------------------------------|
|------------------------------|-------------------------------|
|------------------------------|-------------------------------|
|------------------------------|-------------------------------|
|-12------0-0-0-0-8h12-0-0-0-0-|--8h===12-0-0-0-0-15-0-0-14-15-|


|-15-15-17-17-18-18-17-17-15-15-13-13-15-15-13-13-|
|-------------------------------------------------|
|-------------------------------------------------|
|-------------------------------------------------|
|-------------------------------------------------|
|-------------------------------------------------|
|
|              PM------|               PM------|
|-------------------------------------------------|
|-------------------------------------------------|
|-------------------------------------------------|
|-------------------------------------------------|
|-------------------------------------------------|
|-12-----------0--0--0--0--8h===12-----0--0--0--0-|


|-12-12-13-13-13-13-12-12-12-12--------------|
|-------------------------------15---(15)----|
|--------------------------------------------|
|--------------------------------------------|
|--------------------------------------------|
|--------------------------------------------|
|
|              PM------|         PM|
|--------------------------------------------|
|--------------------------------------------|
|--------------------------------------------|
|--------------------------------------------|
|--------------------------------------------|
|--8h===12-----0--0--0--0-15-----0-0--14h15--|


|-17-17-17-17p13s======12------------|-------------13---17---18\-----------|
|------------------------------------|----------15-------------------------|
|------------------------------------|-------14----------------------------|
|------------------------------------|----15-------------------------------|
|------------------------------------|-17----------------------------------|
|------------------------------------|-------------------------------------|
|
|              PM----|       PM----|                PM-----|     PM|
|------------------------------------|-------------------------------------|
|------------------------------------|-------------------------------------|
|------------------------------------|-------------------------------------|
|------------------------------------|-------------------------------------|
|------------------------------------|-------------------------------------|
|-12-----------0-0-0-0--8h12-0-0-0-0-|--8h===12-----0-0--0-0-15--0-0-14h15-|


   T           T           T           T
|-17p13p10h13-17p13p10h13-18p13p10h13-18p13p10h13-|
|-------------------------------------------------|
|-------------------------------------------------|
|-------------------------------------------------|
|-------------------------------------------------|
|-------------------------------------------------|
|
|              PM------|               PM------|
|-------------------------------------------------|
|-------------------------------------------------|
|-------------------------------------------------|
|-------------------------------------------------|
|-------------------------------------------------|
|-12-----------0--0--0--0--8h===12-----0--0--0--0-|


   T           T           T           T
|-17p13p10h13-17p13p10h13-15p13p10h13-15p13p10h13-|
|-------------------------------------------------|
|-------------------------------------------------|
|-------------------------------------------------|
|-------------------------------------------------|
|-------------------------------------------------|
|
|              PM------|         PM|
|-------------------------------------------------|
|-------------------------------------------------|
|-------------------------------------------------|
|-------------------------------------------------|
|-------------------------------------------------|
|--8h===12-----0--0--0--0-15-----0--0-14h===15----|


   T          T          T           T
|-15p11p8h11-15p11p8h11-15p11p=8h11-15p11p8h11-|-10b11---------------|
|----------------------------------------------|---------------------|
|----------------------------------------------|---------------------|
|----------------------------------------------|---------------------|
|----------------------------------------------|---------------------|
|----------------------------------------------|---------------------|
|
|             PM-----|               PM-----|
|----------------------------------------------|---------------------|
|----------------------------------------------|---------------------|
|----------------------------------------------|---------------------|
|----------------------------------------------|---------5-------3---|
|----------------------------------------------|-------5---5---3---3-|
|-12----------0--0-0--0--8h===12-----0--0-0--0-|--5----------3-------|


  Gtr II
   ~~
|-10------------------|-----------------|-----------------|-----------------|
|---------------------|-----------------|-----------------|-----------------|
|---------------------|-----------------|-----------------|-----------------|
|---------------------|-----------------|-----------------|-----------------|
|---------------------|-----------------|-----------------|-----------------|
|---------------------|-----------------|-----------------|-----------------|
|
| Gtr I                 Gtrs I, II
|---------------------|-----------------|-----------------|-----------------|
|---------------------|-----------------|-----------------|-----------------|
|---------------------|-----------------|-----------------|-----------------|
|---------------------|-----------------|-----------------|-----5-------3---|
|---------------------|-----------------|-----------------|---5---5---3---3-|
|-12-0h12-0h12-0h12-0-|-8-0h8-0h8-0h8-0-|-6-0h6-0h6-0h6-0-|-5-------3-------|


    Gtr II
||--10----------------10----------------10----------|
||o-------10----10----------10----10----------10----|
||--------------------------------------------------|
||--------------------------------------------------|
||o-------------------------------------------------|
||--------------------------------------------------|
|
|   Gtr I
|    PM----------------------------------------------
||--------------------------------------------------|
||o-------------------------------------------------|
||--------------------------------------------------|
||--------------------------------------------------|
||o-------------------------------------------------|
||--12-12-12-12-12-12-12-12-12-12-12-12-14-14-14-14-|


|-12h===13----13----13----12h===13----13----13-----|
|--------------------------------------------------|
|--------------------------------------------------|
|--------------------------------------------------|
|--------------------------------------------------|
|--------------------------------------------------|
|
|----------------------------------------------|
|--------------------------------------------------|
|--------------------------------------------------|
|--------------------------------------------------|
|--------------------------------------------------|
|--------------------------------------------------|
|-12-12-12-12-14-14-14-14-12-12-12-12-15-15-15-15--|


|-10----------------10----------------10----------|
|-------10----10----------10----10----------10----|
|-------------------------------------------------|
|-------------------------------------------------|
|-------------------------------------------------|
|-------------------------------------------------|
|
|  PM----------------------------------------------
|-------------------------------------------------|
|-------------------------------------------------|
|-------------------------------------------------|
|-------------------------------------------------|
|-------------------------------------------------|
|-12-12-12-12-14-14-14-14-15-15-15-15-17-17-17-17-|


|-12----13----12----10----12----13----12----10----|
|-------------------------------------------------|
|-------------------------------------------------|
|-------------------------------------------------|
|-------------------------------------------------|
|-------------------------------------------------|
|
|----------------------------------------------|
|-------------------------------------------------|
|-------------------------------------------------|
|-------------------------------------------------|
|-------------------------------------------------|
|-------------13-13-13-13-------------------------|
|-15-15-15-15-------------13-13-13-13-13-13-13-13-|


|-10----------------10----------------10----------|
|-------10----10----------10----10----------10----|
|-------------------------------------------------|
|-------------------------------------------------|
|-------------------------------------------------|
|-------------------------------------------------|
|
|  PM----------------------------------------------
|-------------------------------------------------|
|-------------------------------------------------|
|-------------------------------------------------|
|-------------------------------------------------|
|-------------------------------------------------|
|-12-12-12-12-12-12-12-12-12-12-12-12-14-14-14-14-|


|-12h===13----13----13----12h===13----13----13----|
|-------------------------------------------------|
|-------------------------------------------------|
|-------------------------------------------------|
|-------------------------------------------------|
|-------------------------------------------------|
|
|----------------------------------------------|
|-------------------------------------------------|
|-------------------------------------------------|
|-------------------------------------------------|
|-------------------------------------------------|
|-------------------------------------------------|
|-12-12-12-12-14-14-14-14-12-12-12-12-15-15-15-15-|


|-10----------------10----------------10----------|
|-------10----10----------10----10----------10----|
|-------------------------------------------------|
|-------------------------------------------------|
|-------------------------------------------------|
|-------------------------------------------------|
|
|  PM----------------------------------------------
|-------------------------------------------------|
|-------------------------------------------------|
|-------------------------------------------------|
|-------------------------------------------------|
|-------------------------------------------------|
|-12-12-12-12-12-12-12-12-12-12-12-12-14-14-14-14-|


|-12---13----12----10----12----13----12----10-----||
|------------------------------------------------o||
|-------------------------------------------------||
|-------------------------------------------------||
|------------------------------------------------o||
|-------------------------------------------------||
|
|---------------------------------------------|
|-------------------------------------------------||
|------------------------------------------------o||
|-------------------------------------------------||
|-------------------------------------------------||
|------------------------------------------------o||
|-15-5-15-15-14-14-14-14-13-13-13-13-13-13-13-13--||


    Gtrs I, II
    PM------------|          PM------------|
||-------------------------|------------------------|
||o------------------------|------------------------|
||-------------------------|------------------------|
||-------------------------|------------------------|
||o------------------------|------------------------|
||--0-0-0-0-0-0-0-0-12\----|-0-0-0-0-0-0-0-0-14\----|


  PM------------|
                                                 6x
|------------------------|--------------------|--||
|------------------------|--------------------|-o||
|------------------------|--------------------|--||
|------------------------|--------------------|--||
|------------------------|--------------------|-o||
|-0-0-0-0-0-0-0-0-15\----|-7-11-11-11-7-12\---|--||




--------------------------------------------------------------------------------


Tablature Legend
----------------
 h   - hammer-on
 p   - pull-off
 b   - bend
 pb  - pre-bend
 r   - bend release (if no number after the r, then release immediately)
 /\  - slide into or out of (from/to "nowhere")
 s   - legato slide
 S   - shift slide
 - natural harmonic
[n]  - artificial harmonic
n(n) - tapped harmonic
 ~   - vibrato
 tr  - trill
 T   - tap
 TP  - trem. picking
 PM  - palm muting
\n/  - tremolo bar dip; n = amount to dip
 \n  - tremolo bar down
 n/  - tremolo bar up
/n\  - tremolo bar inverted dip
 =   - hold bend; also acts as connecting device for hammers/pulls
 <> - volume swell (louder/softer)
 x   - on rhythm slash represents muted slash
 o   - on rhythm slash represents single note slash

Misc Legend
-----------
 |  - bar
||  - double bar
||o - repeat start
o|| - repeat end
*|  - double bar (ending)
 :  - bar (freetime)
 $  - Segno
 &  - Coda
Tempo markers -  = BPM(8/16=s8/s16), where s8 = swing 8ths, s16 = swing 16ths


Tap to rate this tab
# A B C D E F G H I J K L M N O P Q R S T U V W X Y Z