Song name
# A B C D E F G H I J K L M N O P Q R S T U V W X Y Z

Devildriver - End Of The Line tab

-------------------------------------------------------------------------------
			     End Of The Line - Devildriver
-------------------------------------------------------------------------------
Tabbed by: metalmonkey147
Email:

Tuning: Drop B

 (0:51)
|-------------------------------------------------9-7-7-7-10-7-7-7----------|
|---------------------------------7-5-5-5-8-5-5-5---------------------------|
|-6-4-4-4-7-4-4-4-6-4-4-4-7-4-4-4-------------------------------------------|
|---------------------------------------------------------------------------| x2
|---------------------------------------------------------------------------|
|---------------------------------------------------------------------------|

|---------------------------------------------------|
|---------------------------------------------------|
|---------------------------------------------------|
|-----7---6p3-----7---6p3-----7---6p3-----7---6p3---|
|---------------------------------------------------|
|-333---3-----333---3-----333---3-----333---3-------|
  ...   .     ...   .     ...   .     ...   .
|---------------------------------------------------|
|---------------------------------------------------|
|---------------------------------------------------|
|-----5---4p2-----5---4p2-----5---4p2-----5---4p2---|
|---------------------------------------------------|
|-222---2-----222---2-----222---2-----222---2-------|
  ...   .     ...   .     ...   .     ...   .
|---------------------------------------------------|
|---------------------------------------------------|
|---------------------------------------------------|
|-----7---6p3-----7---6p3-----7---6p3-----7---6p3---|
|---------------------------------------------------|
|-333---3-----333---3-----333---3-----333---3-------|
  ...   .     ...   .     ...   .     ...   .
|---------------------------------------------------|
|---------------------------------------------------|
|---------------------------------------------------|
|-----5---4p2-----5---4p2-----5---4p2-----5---4p2---|
|---------------------------------------------------|
|-222---2-----222---2-----222---2-----222---2-------|
  ...   .     ...   .     ...   .     ...   .

|---------------------------------------------------------------------------|
|---------------------------------------------------------------------------|
|---------------------------------------------------------------------------|
|---------------------------------------------------------------------------|
|-----7-7-6-3---------7-7-6-3---------5-5-4-2---------5-5-4-2---------------|
|-3-3---------5b--3-3---------5b--2-2---------4b--2-2---------4b------------|

|---------------------------------------------------------------------------|
|---------------------------------------------------------------------------|
|---------------------------------------------------------------------------|
|-----7-7-6-3---------7-7-6-3---------5-5-4-2---------5-5-4-2---------------|
|---------------------------------------------------------------------------|
|-3-3---------5b--3-3---------5b--2-2---------4b--2-2---------4b------------|

|--------------------------|
|--------------------------|
|--------------------------|
|--------------------------|
|--3-3---0-0---------------|
|--3-3---0-0----8\\\\\0----| (pick as you slide down)
   . .   . .    ....... 
|-------------------------------------------------------------|
|-------------------------------------------------------------|
|-------------------------------------------------------------|
|-------------------------------------------------------------| x3
|-------------------------------------------------------------|
|-4b-0-0-0-0-0-0-2b-0-0-0-0-0-0-1--0-0-0-0-0-0-1--0-1-2--1-2--|
       . . . . .      . . . . .      . . . . .
|-------------------------------------------------------------|
|-------------------------------------------------------------|
|-------------------------------------------------------------|
|----------------------------------------------1--0-1-2--1-2--| 
|----------------------------------------------1--0-1-2--1-2--|
|-4b-0-0-0-0-0-0-2b-0-0-0-0-0-0-1--0-0-0-0-0-0-1--0-1-2--1-2--|
       . . . . .      . . . . .      . . . . .
|-------------------------------------------------------------|
|-------------------------------------------------------------|
|-------------------------------------------------------------|
|-5--0-----------3--0-----------1--0-----------1--0-1-2--1-2--| x2
|-5--0-----------3--0-----------1--0-----------1--0-1-2--1-2--|
|-5--0-000-000-0-3--0-000-000-0-1--0-000-000-0-1--0-1-2--1-2--|
       ... ... .      ... ... .      ... ... .
|------------------------------------------------------|
|------------------------------------------------------|
|------------------------------------------------------|
|------------------------------------------------------|
|------------------------------------------------------|
|-3~-0-1-2~-0-2-3~-0-1-2~-0-2-3~-0-1-2~-0-2-3~-0-1-2---|

|-------------------------------------------------------------|
|-------------------------------------------------------------|
|--------------------------------------------3-3-3-3-5-5-5-5--|
|------2------3------2------3------2------3--3-3-3-3-5-5-5-5--|
|------2------3------2------3------2------3--1-1-1-1-3-3-3-3--|
|--0-0-2--0-0-3--0-0-2--0-0-3--0-0-2--0-0-3-------------------|
   . .    . .    . .    . .    . .    . .
|-------------------------------------------------------------|
|-------------------------------------------------------------|
|--------------------------------------------3-3-3-3-5-5-5-5--|
|------2------3------2------3------2------3--3-3-3-3-5-5-5-5--| x2
|------2------3------2------3------2------3--1-1-1-1-3-3-3-3--|
|--00002--00003--00002--00003--00002--00003-------------------|
   ....   ....   ....   ....   ....   ....
|---------------------------------------------------|
|---------------------------------------------------|
|---------------------------------------------------|
|-----7---6p3-----7---6p3-----7---6p3-----7---6p3---|
|---------------------------------------------------|
|-333---3-----333---3-----333---3-----333---3-------|
  ...   .     ...   .     ...   .     ...   .
|---------------------------------------------------|
|---------------------------------------------------|
|---------------------------------------------------|
|-----5---4p2-----5---4p2-----5---4p2-----5---4p2---|
|---------------------------------------------------|
|-222---2-----222---2-----222---2-----222---2-------|
  ...   .     ...   .     ...   .     ...   .
|---------------------------------------------------------------------------|
|---------------------------------------------------------------------------|
|---------------------------------------------------------------------------|
|---------------------------------------------------------------------------|
|-----7-7-6-3---------7-7-6-3---------5-5-4-2---------5-5-4-2---------------|
|-3-3---------5b--3-3---------5b--2-2---------4b--2-2---------4b------------|

|---------------------------------------------------------------------------|
|---------------------------------------------------------------------------|
|---------------------------------------------------------------------------|
|-----7-7-6-3---------7-7-6-3---------5-5-4-2---------5-5-4-2---------------|
|---------------------------------------------------------------------------|
|-3-3---------5b--3-3---------5b--2-2---------4b--2-2---------4b------------|

|--------------------------|
|--------------------------|
|--------------------------|
|--------------------------|
|--3-3---0-0---------------|
|--3-3---0-0----8\\\\\0----| (pick as you slide down)
   . .   . .    .......
|-------------------------------------------------------------|
|-------------------------------------------------------------|
|-------------------------------------------------------------|
|-------------------------------------------------------------| x3
|-------------------------------------------------------------|
|-4b-0-0-0-0-0-0-2b-0-0-0-0-0-0-1--0-0-0-0-0-0-1--0-1-2--1-2--|
       . . . . .      . . . . .      . . . . .
|-------------------------------------------------------------|
|-------------------------------------------------------------|
|-------------------------------------------------------------|
|----------------------------------------------1--0-1-2--1-2--| 
|----------------------------------------------1--0-1-2--1-2--|
|-4b-0-0-0-0-0-0-2b-0-0-0-0-0-0-1--0-0-0-0-0-0-1--0-1-2--1-2--|
       . . . . .      . . . . .      . . . . .
|-------------------------------------------------------------|
|-------------------------------------------------------------|
|-------------------------------------------------------------|
|-5--0-----------3--0-----------1--0-----------1--0-1-2--1-2--| x2
|-5--0-----------3--0-----------1--0-----------1--0-1-2--1-2--|
|-5--0-000-000-0-3--0-000-000-0-1--0-000-000-0-1--0-1-2--1-2--|
       ... ... .      ... ... .      ... ... .
|------------------------------------------------------|
|------------------------------------------------------|
|------------------------------------------------------|
|------------------------------------------------------|
|------------------------------------------------------|
|-3~-0-1-2~-0-2-3~-0-1-2~-0-2-3~-0-1-2~-0-2-3~-0-1-2---|

|-------------------------------------------------------------|
|-------------------------------------------------------------|
|--------------------------------------------3-3-3-3-5-5-5-5--|
|------2------3------2------3------2------3--3-3-3-3-5-5-5-5--|
|------2------3------2------3------2------3--1-1-1-1-3-3-3-3--|
|--0-0-2--0-0-3--0-0-2--0-0-3--0-0-2--0-0-3-------------------|
   . .    . .    . .    . .    . .    . .
|-------------------------------------------------------------|
|-------------------------------------------------------------|
|--------------------------------------------3-3-3-3-5-5-5-5--|
|------2------3------2------3------2------3--3-3-3-3-5-5-5-5--| x2
|------2------3------2------3------2------3--1-1-1-1-3-3-3-3--|
|--00002--00003--00002--00003--00002--00003-------------------|
   ....   ....   ....   ....   ....   ....
|-----------------------------------------------------------------|
|-----------------------------------------------------------------|
|-----------------------------------------------------8--7--------|
|--6-6------9-8-9-8-6-6------8-9-8-9-6-6------9-8-9-8-8--7--6--5--|
|--6-6--------------6-6--------------6-6--------------6--5--6--5--|
|--6-6-6666---------6-6-6666---------6-6-6666---------------6--5--|
       ....             ....             ....
|------------------------------------------------------------------------------------------|
|------------------------------------------------------------------------------------------|
|------------------------------------------------------------------------------------------|
|--3-3------6-5-6-5-3-3------5-6-5-6-3-3------6-5-6-5-9p6h9p6h9p6h9p6-10p7h10p7h10p7h10p7--|
|--3-3--------------3-3--------------3-3---------------------------------------------------|
|--3-3-3333---------3-3-3333---------3-3-3333----------------------------------------------|
       ....             ....             ....
|-----------------------------------------------------------------|
|-----------------------------------------------------------------|
|-----------------------------------------------------8--7--------|
|--6-6------9-8-9-8-6-6------8-9-8-9-6-6------9-8-9-8-8--7--6--5--|
|--6-6--------------6-6--------------6-6--------------6--5--6--5--|
|--6-6-6666---------6-6-6666---------6-6-6666---------------6--5--|
       ....             ....             ....
|------------------------------------------------------------------------------------------|
|------------------------------------------------------------------------------------------|
|------------------------------------------------------------------------------------------|
|--3-3------6-5-6-5-3-3------5-6-5-6-3-3------6-5-6-5-9p6h9p6h9p6h9p6-10p7h10p7h10p7h10p7--|
|--3-3--------------3-3--------------3-3---------------------------------------------------|
|--3-3-3333---------3-3-3333---------3-3-3333----------------------------------------------|
       ....             ....             ....
|----------------------------------------------------------------|
|----------------------------------------------------------------|
|----------------------------------------------------------------|
|----6-6--8-9~---6-6--8-9-8-9---6-6--8-9~--8-8-8-8-10-10-10-10---|
|----6-6---------6-6------------6-6--------8-8-8-8-10-10-10-10---|
|--666-6-------666-6----------666-6--------8-8-8-8-10-10-10-10---|
   ..  .       ..  .          ..  .
|----------------------------------------------------------|
|----------------------------------------------------------|
|----------------------------------------3-3-3-3-5-5-5-5---|
|--------6b-----------6b-----------6b----3-3-3-3-5-5-5-5---|
|----------------------------------------1-1-1-1-3-3-3-3---|
|--2b-0-----0--2b--0-----0--2b--0-----0--------------------|
         *            *            *
|---------------------------------------------------------------------|
|---------------------------------------------------------------------|
|---------------------------------------------------------------------|
|----6--6-9-9-9-9---6--6-8-9-8-9---6--6-9-9-9-9-8-8-8-8-10-10-10-10---|
|----6--6-9-9-9-9---6--6-----------6--6-9-9-9-9-8-8-8-8-10-10-10-10---|
|--666--6-9-9-9-9-666--6---------666--6-9-9-9-9-8-8-8-8-10-10-10-10---|
   ..   . . . . . ..   .         ..   . . . . .
|----------------------------------------------------------|
|----------------------------------------------------------|
|----------------------------------------3-3-3-3-5-5-5-5---|
|--------6b-----------6b-----------6b----3-3-3-3-5-5-5-5---|
|----------------------------------------1-1-1-1-3-3-3-3---|
|--2b-0-----0--2b--0-----0--2b--0-----0--------------------|
         *            *            *
|-------------------------------------------------------------|
|-------------------------------------------------------------|
|--------------------------------------------3-3-3-3-5-5-5-5--|
|------2------3------2------3------2------3--3-3-3-3-5-5-5-5--|
|------2------3------2------3------2------3--1-1-1-1-3-3-3-3--|
|--0-0-2--0-0-3--0-0-2--0-0-3--0-0-2--0-0-3-------------------|
   . .    . .    . .    . .    . .    . .
|-------------------------------------------------------------|
|-------------------------------------------------------------|
|--------------------------------------------3-3-3-3-5-5-5-5--|
|------2------3------2------3------2------3--3-3-3-3-5-5-5-5--|
|------2------3------2------3------2------3--1-1-1-1-3-3-3-3--|
|--00002--00003--00002--00003--00002--00003-------------------|
   ....   ....   ....   ....   ....   ....
|------------------------------------------------------------------------|
|------------------------------------------------------------------------|
|------------------------------------------------------------------------|
|-3-3--0-0---5--0-----------3--0-----------1--0-----------1--0-1-2--1-2--|
|-3-3--0-0---5--0-----------3--0-----------1--0-----------1--0-1-2--1-2--|
|-3-3--0-0---5--0-000-000-0-3--0-000-000-0-1--0-000-000-0-1--0-1-2--1-2--|
                  ... ... .      ... ... .      ... ... .
|-------------------------------------------------------------|
|-------------------------------------------------------------|
|-------------------------------------------------------------|
|-5--0-----------3--0-----------1--0-----------1--0-1-2--1-2--|
|-5--0-----------3--0-----------1--0-----------1--0-1-2--1-2--|
|-5--0-000-000-0-3--0-000-000-0-1--0-000-000-0-1--0-1-2--1-2--|
       ... ... .      ... ... .      ... ... .
|------------------------------------------------------|
|------------------------------------------------------|
|------------------------------------------------------|
|------------------------------------------------------|
|------------------------------------------------------|
|-3~-0-1-2~-0-2-3~-0-1-2~-0-2-3~-0-1-2~-0-2-3~-0-1-2---|

|-------------------------------------------------------------|
|-------------------------------------------------------------|
|--------------------------------------------3-3-3-3-5-5-5-5--|
|------2------3------2------3------2------3--3-3-3-3-5-5-5-5--|
|------2------3------2------3------2------3--1-1-1-1-3-3-3-3--|
|--0-0-2--0-0-3--0-0-2--0-0-3--0-0-2--0-0-3-------------------|
   . .    . .    . .    . .    . .    . .
|-------------------------------------------------------------|
|-------------------------------------------------------------|
|--------------------------------------------3-3-3-3-5-5-5-5--|
|------2------3------2------3------2------3--3-3-3-3-5-5-5-5--| x2
|------2------3------2------3------2------3--1-1-1-1-3-3-3-3--|
|--00002--00003--00002--00003--00002--00003-------------------|
   ....   ....   ....   ....   ....   ....


************************************

| .   palm mute
| /   slide up
| \   slide down
| h   hammer-on
| p   pull-off
| ~   vibrato
| *   harmonic
| x   Mute note
| b   Bend
| pb  Pre-bend
| br  Bend release
| pbr Pre-bend release
| brb Bend release bend

************************************
Tap to rate this tab
# A B C D E F G H I J K L M N O P Q R S T U V W X Y Z