Song name
# A B C D E F G H I J K L M N O P Q R S T U V W X Y Z

Devildriver - Hold Back The Day tab

-------------------------------------------------------------------------------
			     Hold Back The Day - Devildriver
-------------------------------------------------------------------------------
Tabbed by: metalmonkey147
Email:

Tuning: Drop B

 (0:11)
|-------------------------------------------------|
|-------------------------------------------------|
|-------0--3--------0--3--------7-----------6--6--|
|-------------0--------------------8--------------| x3
|----0-----------0-----------8-----------7--------|
|-0-----------------------8-----------7-----------|

|---------------------------------------------------|
|---------------------------------------------------|
|---------------------------------------------------|
|-0-3---0-3---0-12\--0-3---0-8---0-8---0-15\--0-7---|
|-0-3---0-3---0-12\--0-3---0-8---0-8---0-15\--0-7---|
|-0-3---0-3---0-12\--0-3---0-8---0-8---0-15\--0-7---|

|---------------------------------------------------|
|---------------------------------------------------|
|---------------------------------------------------|
|-0-3---0-3---0-15\--0-3---0-8---0-8---0-17\---14b--|
|-0-3---0-3---0-15\--0-3---0-8---0-8---0-17\--------|
|-0-3---0-3---0-15\--0-3---0-8---0-8---0-17\--------|

|---------------------------------------------------------------------------|
|---------------------------------------------------------------------------|
|---------------------------------------------------------------------------|
|---------------------12-------11------------------------15------14---------|
|--12--------13------------------------12-------13--------------------------|
|---------------------------------------------------------------------------|
  (x16)     (x16)    (x16)    (x16)   (x16)    (x16)    (x8)    (x8)

|--------------------|
|--------------------|
|--------------------|
|--77887755770-------|
|---------------7b---|
|--------------------|
   ...........

|---------------------------------------------------------------------------|
|---------------------------------------------------------------------------|
|---------------------------------------------------------------------------|
|---------------------12-------11------------------------15------14---------|
|--12--------13------------------------12-------13--------------------------|
|---------------------------------------------------------------------------|
  (x16)     (x16)    (x16)    (x16)   (x16)    (x16)    (x16)   (x16)

|---------------------------------------------------------------------------|
|---------------------------------------------------------------------------|
|---------------------------------------------------------------------------|
|---------------------------------------------------------------------------|
|---------------------------------------------------------------------------|
|-1-0-0-0-00000000-1-0-0-0-000-000-1-0-0-0-000000008877000010000000---------|
      . . ........     . . ... ...     . . ........................

|---------------------------------------------------------------------------|
|---------------------------------------------------------------------------|
|---------------------------------------------------------------------------|
|---------------------------------------------------------------------------|
|---------------------------------------------------------------------------|
|-1-0-0-0-00000000-1-0-0-0-000-000-1-0-0-0-000000008877000010000000---------|
      . . ........     . . ... ...     . . ........................

|---------------------------------------------------------------------------|
|---------------------------------------------------------------------------|
|---------------------------------------------------------------------------|
|---------------------------------------------------------------------------|
|---------1-0-------------3-0-------------1-0-------------------------------|
|-1-0-0-0-----3-0-1-0-0-0-----3-0-1p0-0-0-----3-0--8877000010000000---------|
      . .             . .             . .          ................

|---------------------------------------------------------------------------|
|---------------------------------------------------------------------------|
|---------------------------------------------------------------------------|
|---------------------------------------------------------------------------|
|---------1-0-------------3-0-------------1-0-------------------------------|
|-1-0-0-0-----3-0-1-0-0-0-----3-0-1-0-0-0-----3-0--8877000010000000---------|
      . .             . .             . .          ................

|--10-13--10-13--10-13--10-13-----13-----13-----12--12br---|
|------------------------------11-----11-----10------------|
|----------------------------------------------------------|
|----------------------------------------------------------|
|----------------------------------------------------------|
|----------------------------------------------------------|

|--10-13--10-13--10-13--10-13-----13-----13-----12---------|
|------------------------------11-----11-----10------------|
|----------------------------------------------------------|
|-----------------------------------------------------14b--|
|----------------------------------------------------------|
|----------------------------------------------------------|

|---------------------------------------------------------------------------|
|---------------------------------------------------------------------------|
|---------------------------------------------------------------------------|
|---------------------12-------11------------------------15------14---------|
|--12--------13------------------------12-------13--------------------------|
|---------------------------------------------------------------------------|
  (x16)     (x16)    (x16)    (x16)   (x16)    (x16)    (x8)    (x8)

|--------------------|
|--------------------|
|--------------------|
|--77887755770-------|
|---------------7b---|
|--------------------|
   ...........

|---------------------------------------------------------------------------|
|---------------------------------------------------------------------------|
|---------------------------------------------------------------------------|
|---------------------12-------11------------------------15------14---------|
|--12--------13------------------------12-------13--------------------------|
|---------------------------------------------------------------------------|
  (x16)     (x16)    (x16)    (x16)   (x16)    (x16)    (x16)   (x16)

|---------------------------------------------------------------------------|
|---------------------------------------------------------------------------|
|---------------------------------------------------------------------------|
|---------------------------------------------------------------------------|
|---------------------------------------------------------------------------|
|-1-0-0-0-00000000-1-0-0-0-000-000-1-0-0-0-000000008877000010000000---------|
      . . ........     . . ... ...     . . ........................

|---------------------------------------------------------------------------|
|---------------------------------------------------------------------------|
|---------------------------------------------------------------------------|
|---------------------------------------------------------------------------|
|---------------------------------------------------------------------------|
|-1-0-0-0-00000000-1-0-0-0-000-000-1-0-0-0-000000008877000010000000---------|
      . . ........     . . ... ...     . . ........................

|---------------------------------------------------------------------------|
|---------------------------------------------------------------------------|
|---------------------------------------------------------------------------|
|---------------------------------------------------------------------------|
|---------1-0-------------3-0-------------1-0-------------------------------|
|-1-0-0-0-----3-0-1-0-0-0-----3-0-1p0-0-0-----3-0--8877000010000000---------|
      . .             . .             . .          ................

|---------------------------------------------------------------------------|
|---------------------------------------------------------------------------|
|---------------------------------------------------------------------------|
|---------------------------------------------------------------------------|
|---------1-0-------------3-0-------------1-0-------------------------------|
|-1-0-0-0-----3-0-1-0-0-0-----3-0-1-0-0-0-----3-0--8877000010000000---------|
      . .             . .             . .          ................

|--10-13--10-13--10-13--10-13-----13-----13-----12--12br---|
|------------------------------11-----11-----10------------|
|----------------------------------------------------------|
|----------------------------------------------------------|
|----------------------------------------------------------|
|----------------------------------------------------------|

|--10-13--10-13--10-13--10-13-----13-----13-----12---------|
|------------------------------11-----11-----10------------|
|----------------------------------------------------------|
|-----------------------------------------------------14b--|
|----------------------------------------------------------|
|----------------------------------------------------------| 

|---------------------------------------------------------------------------|
|---------------------------------------------------------------------------|
|---------------------------------------------------------------------------|
|---------------------12-------11------------------------15------14---------|
|--12--------13------------------------12-------13--------------------------|
|---------------------------------------------------------------------------|
  (x16)     (x16)    (x16)    (x16)   (x16)    (x16)    (x8)    (x8)

|--------------------|
|--------------------|
|--------------------|
|--77887755770-------|
|---------------7b---|
|--------------------|
   ...........

|---------------------------------------------------------------------------|
|---------------------------------------------------------------------------|
|---------------------------------------------------------------------------|
|---------------------12-------11------------------------15------14---------|
|--12--------13------------------------12-------13--------------------------|
|---------------------------------------------------------------------------|
  (x16)     (x16)    (x16)    (x16)   (x16)    (x16)    (x16)   (x16)

|---------------------------------------------------------------------------|
|---------------------------------------------------------------------------|
|---------------------------------------------------------------------------|
|------------------------------------------------------------8\-------------|
|------------------------------------------------------------8\-------------|
|-1-0-0-0-00000000-1-0-0-0-00000000-1-0-0-0-00000000-1-0-0-0-8\-------------|
      . . ........     . . ........     . . ........     . .

|---------------------------------------------------------------------------|
|---------------------------------------------------------------------------|
|---------------------------------------------------------------------------|
|--0h5-7-3--0--0--0h5-7-3--0--0--0h5-7-3--3--3--0h5-7-2--2--2---------------|
|--0h5-7-3--0--0--0h5-7-3--0--0--0h5-7-3--3--3--0h5-7-2--2--2---------------|
|--0h5-7-3--0--0--0h5-7-3--0--0--0h5-7-3--3--3--0h5-7-2--2--2---------------|

|---------------------------------------------------------------------------|
|---------------------------------------------------------------------------|
|---------------------------------------------------------------------------|
|--0h5-7-3--0--0--0h5-7-3--0--0--0h5-7-3--3--3--0h5-7-2--2--2---------------|
|--0h5-7-3--0--0--0h5-7-3--0--0--0h5-7-3--3--3--0h5-7-2--2--2---------------|
|--0h5-7-3--0--0--0h5-7-3--0--0--0h5-7-3--3--3--0h5-7-2--2--2---------------|

|---------------------------------------------------------------------------|
|---------------------------------------------------------------------------|
|---------------------------------------------------------------------------|
|--0h5-7-3--0-------0h5-7-3--0-------0h5-7-3--3-------0h5-7-2--2------------|
|--0h5-7-3--0-------0h5-7-3--0-------0h5-7-3--3-------0h5-7-2--2------------|
|--0h5-7-3--0-0000000h5-7-3--0-0000000h5-7-3--3-3333330h5-7-2--2-222222-----|
              ......           ......           ......           ......

|---------------------------------------------------------------------------|
|---------------------------------------------------------------------------|
|---------------------------------------------------------------------------|
|--0h5-7-3--0-------0h5-7-3--0-------0h5-7-3--3-------0h5-7-2--2------------|
|--0h5-7-3--0-------0h5-7-3--0-------0h5-7-3--3-------0h5-7-2--2------------|
|--0h5-7-3--0-0000000h5-7-3--0-0000000h5-7-3--3-3333330h5-7-2--2-222222-----|
              ......           ......           ......           ......

|--10-13--10-13--10-13--10-13-----13-----13-----12--12br---|
|------------------------------11-----11-----10------------|
|----------------------------------------------------------|
|----------------------------------------------------------|
|----------------------------------------------------------|
|----------------------------------------------------------|

|--10-13--10-13--10-13--10-13-----13-----13-----12---------|
|------------------------------11-----11-----10------------|
|----------------------------------------------------------|
|-----------------------------------------------------14b--|
|----------------------------------------------------------|
|----------------------------------------------------------|

|---------------------------------------------------|
|---------------------------------------------------|
|---------------------------------------------------|
|-0-3---0-3---0-15\--0-3---0-8---0-8---0-17\--0-7---|
|-0-3---0-3---0-15\--0-3---0-8---0-8---0-17\--0-7---|
|-0-3---0-3---0-15\--0-3---0-8---0-8---0-17\--0-7---|

|---------------------------------------------------|
|---------------------------------------------------|
|---------------------------------------------------|
|-0-3---0-3---0-17\--0-3---0-8---0-8---0-17\---14b--|
|-0-3---0-3---0-17\--0-3---0-8---0-8---0-17\--------|
|-0-3---0-3---0-17\--0-3---0-8---0-8---0-17\--------|

|---------------------------------------------------|
|---------------------------------------------------|
|---------------------------------------------------|
|-0-3---0-3---0-15\--0-3---0-8---0-8---0-17\--0-7---|
|-0-3---0-3---0-15\--0-3---0-8---0-8---0-17\--0-7---|
|-0-3---0-3---0-15\--0-3---0-8---0-8---0-17\--0-7---|

|---------------------------------------------------|
|---------------------------------------------------|
|---------------------------------------------------|
|-0-3---0-3---0-15\--0-3---0-8---0-8---0-17\--7-----|
|-0-3---0-3---0-15\--0-3---0-8---0-8---0-17\--7-----|
|-0-3---0-3---0-15\--0-3---0-8---0-8---0-17\--7-----|


************************************

| .   palm mute
| /   slide up
| \   slide down
| h   hammer-on
| p   pull-off
| ~   vibrato
| *   harmonic
| x   Mute note
| b   Bend
| pb  Pre-bend
| br  Bend release
| pbr Pre-bend release
| brb Bend release bend

************************************
Tap to rate this tab
 
# A B C D E F G H I J K L M N O P Q R S T U V W X Y Z