Song name
# A B C D E F G H I J K L M N O P Q R S T U V W X Y Z

Devildriver - Swinging The Dead tab

-------------------------------------------------------------------------------
		       Swinging The Dead - Devildriver
-------------------------------------------------------------------------------
Tabbed by: metalmonkey147
Email:

Tuning: Drop B

|-----------------------------------------------|
|-----------------------------------------------|
|-----------------------------------------------|
|-0-----------------------0---------------5-----|
|-0---6p5p0-5h6p0-6p5p0---0---6p5p0-5h6p0-6-----|
|-0-----------------------0---------------------|

|-----------------------------------------------|
|-----------------------------------------------|
|-----------------------------------------------|
|-0-0---------------------1--0--0--6--5--3------|
|-0-0--6p5p0-5h6p0-6p5p0--1--0--0--6--5--3------|
|-0-0---------------------1--0--0--6--5--3------|
                          .  .  .  .  .  .

|-----------------------------------------------|
|-----------------------------------------------|
|-----------------------------------------------|
|-------------------------------------------5---|
|-------6p5p0-5h6p0-6p5p0-------6p5p0-5h6p0-6---|
|-0-0-0-------------------0-0-0-----------------|
  . . .                   . . .

|-----------------------------------------------|
|-----------------------------------------------|
|-----------------------------------------------|
|--------------------------1--0--0--6--5--3-----|
|-------6p5p0-5h6p0-6p5p0--1--0--0--6--5--3-----|
|-0-0-0--------------------1--0--0--6--5--3-----|
  . . .                    .  .  .  .  .  .

|-----------------------------------------------|
|-----------------------------------------------|
|-----------------------------------------------|
|-------------------------------------------5---|
|-------6p5p0-5h6p0-6p5p0-------6p5p0-5h6p0-6---|
|-0-0-0-------------------0-0-0-----------------|
  . . .                   . . .

|-----------------------------------------------|
|-----------------------------------------------|
|-----------------------------------------------|
|-----------------------------------------------|
|-------6p5p0-5h6p0-6p5p0-6p5p0-3h5p0-5p3p0-1---|
|-0-0-0-----------------------------------------|
  . . .

|--------------------------------------------------|
|--------------------------------------------------|
|--------------------------------------------------|\
|--------------------------------------------------| \
|--------------------------------------------------|  \
|-0-0-0-0-0-0-0-0-0-0-0-0-0-0-0-0-0-0-0-0-0-1-1-1--|  |
  . . . . . . . . . . . . . . . . . . . . . . . .     |
                                                      | x4
|--------------------------------------------------|  |
|--------------------------------------------------|  /
|--------------------------------------------------| /
|--------------------------------------------------|/
|--------------------------------------------------|
|-0-0-0-0-0-0-0-0-0-0-0-0-0-0-0-0-0-0-0-0-0-3-3-3--|
  . . . . . . . . . . . . . . . . . . . . . . . .

|--------------------------------------------------|
|--------------------------------------------------|
|--------------------------------------------------|
|--------------------------------------------------|
|-0-------------------------------------------17\\-|
|-0-------------------------------------------17\\-|

|-------------------------------------|
|-------------------------------------|
|-------------------------------------|
|-------------------------------------| x4
|-1-----1p0---1-----1p0---1-1-0-0-----|
|-100-0-1p0-0-100-0-1p0-0-1-1-0-0-----|

|---------------------------------------------------|
|---------------------------------------------------|
|---------------------------------------------------|
|---------------------------------------------------| x2
|---------------------------------------------------|
|-3h4b--0--3h4b--0---1--0--3h4b--0--3h4b--0---1--0--|

|-----------------------------------------------|
|-----------------------------------------------|
|-----------------------------------------------|
|-------------------------------------------5---|
|-------6p5p0-5h6p0-6p5p0-------6p5p0-5h6p0-6---|
|-0-0-0-------------------0-0-0-----------------|
  . . .                   . . .

|-----------------------------------------------|
|-----------------------------------------------|
|-----------------------------------------------|
|--------------------------1--0--0--6--5--3-----|
|-------6p5p0-5h6p0-6p5p0--1--0--0--6--5--3-----|
|-0-0-0--------------------1--0--0--6--5--3-----|
  . . .                    .  .  .  .  .  .

|-----------------------------------------------|
|-----------------------------------------------|
|-----------------------------------------------|
|-------------------------------------------5---|
|-------6p5p0-5h6p0-6p5p0-------6p5p0-5h6p0-6---|
|-0-0-0-------------------0-0-0-----------------|
  . . .                   . . .

|-----------------------------------------------|
|-----------------------------------------------|
|-----------------------------------------------|
|-----------------------------------------------|
|-------6p5p0-5h6p0-6p5p0-6p5p0-3h5p0-5p3p0-1---|
|-0-0-0-----------------------------------------|
  . . .

|--------------------------------------------------|
|--------------------------------------------------|
|--------------------------------------------------|\
|--------------------------------------------------| \
|--------------------------------------------------|  \
|-0-0-0-0-0-0-0-0-0-0-0-0-0-0-0-0-0-0-0-0-0-1-1-1--|  |
  . . . . . . . . . . . . . . . . . . . . . . . .     |
                                                      | x4
|--------------------------------------------------|  |
|--------------------------------------------------|  /
|--------------------------------------------------| /
|--------------------------------------------------|/
|--------------------------------------------------|
|-0-0-0-0-0-0-0-0-0-0-0-0-0-0-0-0-0-0-0-0-0-3-3-3--|
  . . . . . . . . . . . . . . . . . . . . . . . .

|--------------------------------------------------|
|--------------------------------------------------|
|--------------------------------------------------|
|--------------------------------------------------|
|-0-------------------------------------------17\\-|
|-0-------------------------------------------17\\-|

|-------------------------------------|
|-------------------------------------|
|-------------------------------------|
|-------------------------------------| x4
|-1-----1p0---1-----1p0---1-1-0-0-----|
|-100-0-1p0-0-100-0-1p0-0-1-1-0-0-----|

|---------------------------------------------------|
|---------------------------------------------------|
|---------------------------------------------------|
|---------------------------------------------------| x2
|---------------------------------------------------|
|-3h4b--0--3h4b--0---1--0--3h4b--0--3h4b--0---1--0--|

|-----------------------------------------------|
|-----------------------------------------------|
|-----------------------------------------------|
|-0------------(0)------------------------------| x4
|-0------------(0)------------5p3p0-3h5p0-1-----|
|-0------------(0)-------0-0--------------------|
                         . .

|-----------------------------------------------|
|-----------------------------------------------|
|-----------------------------------------------|
|-----------------------------------------------| x4
|-------5p3p0-3h5p0-5p3p0-------5p3p0-3h5p0-1---|
|-0-0-0-------------------0-0-0-----------------|
  . . .                   . . .

|-----------------------------------------------|
|-----------------------------------------------|
|-----------------------------------------------|
|-------------------------------3p2---2h3---0---| x4
|-------5p3p0-3h5p0-5p3p0-----------3-----3-----|
|-0-0-0-------------------0-0-0-----------------|
  . . .                   . . .

|-----------------------------------------------|
|-----------------------------------------------|
|-----------------------------------------------|
|-0------------(0)------------------------------|
|-0------------(0)--------5p3p0-3h5p0-5p3p0-1---|
|-0------------(0)------------------------------|

|--------------------------------------------------|
|--------------------------------------------------|
|--------------------------------------------------|\
|--------------------------------------------------| \
|--------------------------------------------------|  \
|-0-0-0-0-0-0-0-0-0-0-0-0-0-0-0-0-0-0-0-0-0-1-1-1--|  |
  . . . . . . . . . . . . . . . . . . . . . . . .     |
                                                      | x4
|--------------------------------------------------|  |
|--------------------------------------------------|  /
|--------------------------------------------------| /
|--------------------------------------------------|/
|--------------------------------------------------|
|-0-0-0-0-0-0-0-0-0-0-0-0-0-0-0-0-0-0-0-0-0-3-3-3--|
  . . . . . . . . . . . . . . . . . . . . . . . .

|--------------------------------------------------|
|--------------------------------------------------|
|--------------------------------------------------|
|--------------------------------------------------|
|-0-------------------------------------------17\\-|
|-0-------------------------------------------17\\-|

|-------------------------------------|
|-------------------------------------|
|-------------------------------------|
|-------------------------------------| x4
|-1-----1p0---1-----1p0---1-1-0-0-----|
|-100-0-1p0-0-100-0-1p0-0-1-1-0-0-----|

|---------------------------------------------------|
|---------------------------------------------------|
|---------------------------------------------------|
|---------------------------------------------------|
|---------------------------------------------------|
|-3h4b--0--3h4b--0---1--0--3h4b--0--3h4b--0---1--0--|

|-----------------------------------------------------|
|-----------------------------------------------------|
|-----------------------------------------------------|
|-----------------------------------------------------|
|---------------------------------------------------0-|
|-3h4b--0--3h4b--0---1--0--3h4b--0--3h4b--0---1--0--0-|



************************************

| .   palm mute
| /   slide up
| \   slide down
| h   hammer-on
| p   pull-off
| ~   vibrato
| *   harmonic
| x   Mute note
| b   Bend
| pb  Pre-bend
| br  Bend release
| pbr Pre-bend release
| brb Bend release bend

************************************
Tap to rate this tab
# A B C D E F G H I J K L M N O P Q R S T U V W X Y Z