Song name
# A B C D E F G H I J K L M N O P Q R S T U V W X Y Z

Devildriver - Nothings Wrong tab

Band: DevilDriver
Song: Nothing's Wrong?
Album: DevilDriver
Tabbed by: stemp
Email: meegs@orange.pl

Tuning - dropped B - B Gb B E Ab Db



Guitar 1                               Guitar 2
-|----------------------------------|- -|----------------------------------|-
-|----------------------------------|- -|----------------------------------|-
-|----------------------------------|- -|----------------------------------|-
-|----------------------------------|- -|----------------------------------|-
-|-66665555333355556666555588885555-|- -|----------------------------------|-
-|----------------------------------|- -|----------------------------------|-

-|----------------------------------|- -|-------------------------------------|-
-|----------------------------------|- -|-------------------------------------|-
-|----------------------------------|- -|-------------------------------------|-
-|----------------------------------|- -|-------------------------------------|-
-|-66665555333355556666555588885555-|- -|-------------------------------------|-
-|----------------------------------|- -|-----------------1p000000-1p000000-0-|-
pm                                                        ........ ........

-|----------------------------------|- -|----------------------------------|-
-|----------------------------------|- -|----------------------------------|-
-|----------------------------------|- -|----------------------------------|-
-|----------------------------------|- -|----------------------------------|-
-|----------------------------------|- -|-66665555333355556666555588885555-|-
-|----------------------------------|- -|----------------------------------|- x2

-|----------------------------------|- -|----------------------------------|-
-|----------------------------------|- -|----------------------------------|-
-|----------------------------------|- -|----------------------------------|-
-|----------------------------------|- -|----------------------------------|-
-|-66665555333355556666555588885555-|- -|-66665555333355556666555588885555-|-
-|----------------------------------|- -|----------------------------------|- x7

-|----------------------------------|- -|----------------------------------|-
-|----------------------------------|- -|----------------------------------|-
-|----------------------------------|- -|----------------------------------|-
-|----------------------------------|- -|----------------------------------|-
-|-6666555533335555666655558\-------|- -|-6666555533335555666655558\-------|-
-|-----------------------------0-0--|- -|-----------------------------0-0--|-
pm                             . .                                    . . 

-|--------------------------------|- -|--------------------------------|-
-|--------------------------------|- -|--------------------------------|-
-|--------------------------------|- -|--------------------------------|-
-|--------------------------------|- -|--------------------------------|-
-|--------------------------------|- -|--------------------------------|-
-|-1p0001p0001p0001p000-1p00-1p00-|- -|-1p0001p0001p0001p000-1p00-1p00-|- x3
pm .................... .... ....       .................... .... ....
                           
-|--------------------------------|- -|--------------------------------|-
-|--------------------------------|- -|--------------------------------|-
-|--------------------------------|- -|--------------------------------|-
-|--------------------------------|- -|--------------------------------|-
-|--------------------------------|- -|----------------------66665-----|-
-|-1p0001p0001p0001p000-1p00-1p00-|- -|-1p0001p0001p0001p000-----------|-
pm .................... .... ....       ....................

-|----------------------------------|- -|----------------------------------|-
-|----------------------------------|- -|----------------------------------|-
-|----------------------------------|- -|----------------------------------|-
-|----------------------------------|- -|----------------------------------|-
-|-66665555333355556666555588885555-|- -|-66665555333355556666555588885555-|-
-|----------------------------------|- -|----------------------------------|- x7

-|----------------------------------|- -|----------------------------------|-
-|----------------------------------|- -|----------------------------------|-
-|----------------------------------|- -|----------------------------------|-
-|----------------------------------|- -|----------------------------------|-
-|-6666555533335555666655558\-------|- -|-6666555533335555666655558\-------|-
-|-----------------------------0-0--|- -|-----------------------------0-0--|-
pm                             . .                                    . . 

-|--------------------------------|- -|--------------------------------|-
-|--------------------------------|- -|--------------------------------|-
-|--------------------------------|- -|--------------------------------|-
-|--------------------------------|- -|--------------------------------|-
-|--------------------------------|- -|--------------------------------|-
-|-1p0001p0001p0001p000-1p00-1p00-|- -|-1p0001p0001p0001p000-1p00-1p00-|- x3
pm .................... .... ....       .................... .... ....
                           
-|--------------------------------|- -|--------------------------------|-
-|--------------------------------|- -|--------------------------------|-
-|--------------------------------|- -|--------------------------------|-
-|--------------------------------|- -|--------------------------------|-
-|--------------------------------|- -|----------------------66665-----|-
-|-1p0001p0001p0001p000-1p00-1p00-|- -|-1p0001p0001p0001p000-----------|-
pm .................... .... ....       ....................

-|-------------------------------|- -|----------------------------------|-
-|-------------------------------|- -|----------------------------------|-
-|-------------------------------|- -|----------------------------------|-
-|-------------------------------|- -|----------------------------------|-
-|-5-----3-----5-----3-----6---6-|- -|----------------------------------|-
-|---0-0---0-0---0-0---0-0---0---|- -|----------------------------------|- x2
pm   ...   ...   ...   ...   .

-|-----------------------------|- -|--------------------------------|-
-|-----------------------------|- -|--------------------------------|-
-|-----------------------------|- -|--------------------------------|-
-|-----------------------------|- -|-0------------------------------|-
-|-----------------------------|- -|-0------------------------------|-
-|-1p0001p0001p0001p000-1111p0-|- -|-0------------------------------|-
pm .................... ....        

-|-----------------------------|- -|--------------------------------|-
-|-----------------------------|- -|--------------------------------|-
-|-----------------------------|- -|--------------------------------|-
-|-----------------------------|- -|--------------------------------|-
-|-----------------------------|- -|--------------------------------|-
-|-1p0001p0001p0001p000-1111p0-|- -|-\\\\\\\\\\\\\\\\\\\\\\\\\\\\\\-|-
pm .................... ....      

-|------------------------------------------|- -|------------------------------------------|-
-|------------------------------------------|- -|------------------------------------------|-
-|------------------------------------------|- -|------------------------------------------|-
-|-777/5-5-777/5-5-8-8--777/5-5-777/5-5-----|- -|-777/5-5-777/5-5-8-8--777/5-5-777/5-5-----|- 
-|-555/3-3-555/3-3-6-6--555/3-3-555/3-3-1-1-|- -|-555/3-3-555/3-3-6-6--555/3-3-555/3-3-1-1-|-
-|--------------------------------------1-1-|- -|--------------------------------------1-1-|- x2

-|-----------------------------|- -|-----------------------------|-
-|-----------------------------|- -|-----------------------------|-
-|-----------------------------|- -|-----------------------------|-
-|-----------------------------|- -|-----------------------------|-
-|-----------------------------|- -|-----------------------------|-
-|-1p0001p0001p0001p000-1111p0-|- -|-1p0001p0001p0001p000-1111p0-|- x3
pm .................... ....         .................... ....

-|------------------------|- -|------------------------|-
-|------------------------|- -|------------------------|-
-|------------------------|- -|------------------------|-
-|-0--1--7--8--0--1--7--8-|- -|-0--1--7--8--0--1--7--8-|-
-|-0--1--7--8--0--1--7--8-|- -|-0--1--7--8--0--1--7--8-|-
-|-0--1--7--8--0--1--7--8-|- -|-0--1--7--8--0--1--7--8-|-

-|-----------------------------|- -|-----------------------------|-
-|-----------------------------|- -|-----------------------------|-
-|-----------------------------|- -|-----------------------------|-
-|-----------------------------|- -|-----------------------------|-
-|-----------------------------|- -|-----------------------------|-
-|-1p0001p0001p0001p000-1111p0-|- -|-1p0001p0001p0001p000-1111p0-|- x3
pm .................... ....         .................... ....

-|------------------------|- -|------------------------|-
-|------------------------|- -|------------------------|-
-|------------------------|- -|------------------------|-
-|-0--1--7--8--0--1--7--8-|- -|-0--1--7--8--0--1--7--8-|-
-|-0--1--7--8--0--1--7--8-|- -|-0--1--7--8--0--1--7--8-|-
-|-0--1--7--8--0--1--7--8-|- -|-0--1--7--8--0--1--7--8-|-

-|--------------------------|- -|--------------------------|-
-|--------------------------|- -|--------------------------|-
-|--------------------------|- -|--------------------------|-
-|-0--1--7--8---------1-1-1-|- -|-0--1--7--8---------1-1-1-|-
-|-0--1--7--8---------1-1-1-|- -|-0--1--7--8---------1-1-1-|-
-|-0--1--7--8--1111p0-1-1-1-|- -|-0--1--7--8--1111p0-1-1-1-|- x3
pm             ....   . . .                   ....   . . .  

-|----------------------------------|- -|----------------------------------|-
-|----------------------------------|- -|----------------------------------|-
-|----------------------------------|- -|----------------------------------|-
-|----------------------------------|- -|-0--------------------------------|-
-|-66665555333355556666555588885555-|- -|-0--------------------------------|-
-|----------------------------------|- -|-0--------------------------------|-

-|----------------------------------|- -|----------------------------------|-
-|----------------------------------|- -|----------------------------------|-
-|----------------------------------|- -|----------------------------------|-
-|----------------------------------|- -|----------------------------------|-
-|-66665555333355556666555588885555-|- -|----------------------------------|-
-|----------------------------------|- -|----------------------------------|-

-|----------------------------------|- -|----------------------------------|-
-|----------------------------------|- -|----------------------------------|-
-|----------------------------------|- -|----------------------------------|-
-|----------------------------------|- -|----------------------------------|-
-|-66665555333355556666555588885555-|- -|----------------------------------|-
-|----------------------------------|- -|-\\\\\\\\\\\\\\\\\\\\\\\\\\\\\\\\-|- x2

-|----------------------------------|- -|----------------------------------|-
-|----------------------------------|- -|----------------------------------|-
-|----------------------------------|- -|----------------------------------|-
-|----------------------------------|- -|----------------------------------|-
-|-66665555333355556666555588885555-|- -|-66665555333355556666555588885555-|-
-|----------------------------------|- -|----------------------------------|- x3

-|----------------------------------|- -|----------------------------------|-
-|----------------------------------|- -|----------------------------------|-
-|----------------------------------|- -|----------------------------------|-
-|----------------------------------|- -|----------------------------------|-
-|-6666555533335555666655558\-------|- -|-6666555533335555666655558\-------|-
-|-----------------------------0-0--|- -|-----------------------------0-0--|-
pm                             . .                                    . . 

-|--------------------------------|- -|--------------------------------|-
-|--------------------------------|- -|--------------------------------|-
-|--------------------------------|- -|--------------------------------|-
-|--------------------------------|- -|--------------------------------|-
-|--------------------------------|- -|--------------------------------|-
-|-1p0001p0001p0001p000-1p00-1p00-|- -|-1p0001p0001p0001p000-1p00-1p00-|- x3
pm .................... .... ....       .................... .... ....
                           
-|--------------------------------|- -|--------------------------|-
-|--------------------------------|- -|--------------------------|-
-|--------------------------------|- -|--------------------------|-
-|--------------------------------|- -|--------------------------|-
-|--------------------------------|- -|-555533335555333366666666-|-
-|-1p0001p0001p0001p000-1p00-1p00-|- -|--------------------------|-
pm .................... .... ....       

-|----------------------------------|- -|----------------------------------|-
-|----------------------------------|- -|----------------------------------|-
-|----------------------------------|- -|----------------------------------|-
-|-0--------------------------------|- -|-0--------------------------------|-
-|-0--------------------------------|- -|-0--------------------------------|-
-|-0--------------------------------|- -|-0--------------------------------|-
Tap to rate this tab
# A B C D E F G H I J K L M N O P Q R S T U V W X Y Z