Devildriver - Horn Of Betrayal tab

                               Horn Of Betrayal - DevilDriver

Tuning: Drop C

C G C F A D

Tempo = 210 bpm

Guitar 1



     S S S S S S S S S S S S S S S S    S S S S S S S S S S S S S S S S
D||----------------------------------|----------------------------------|
A||----------------------------------|----------------------------------|
F||----------------------------------|----------------------------------|
C||----------------------------------|----------------------------------|
G||----------------------------------|----------------------------------|
C||--0-0-0---0-0-0---0-0-0---0-0-0---|--0-0-0---0-0-0---0-0-0---0-0-0---|


  S S S S S S S S S S S S S S S S    S S S S S S S S S S S S S S S S
----------------------------------|----------------------------------|
----------------------------------|----------------------------------|
----------------------------------|----------------------------------|
----------------------------------|----------------------------------|
----------------------------------|----------------------------------|
--0-0-0---0-0-0---0-0-0---0-0-0---|--0-0-0---0-0-0---0-0-0---0-0-0---|


  S S S S S S S S S S S S S S S S    S S S S S S S S S S S S S S S S
----------------------------------|----------------------------------|
----------------------------------|----------------------------------|
----------------------------------|----------------------------------|
----------------------------------|----------------------------------|
----------------------------------|----------------------------------|
--0-0-0---0-0-0---0-0-0---0-0-0---|--0-0-0---0-0-0---0-0-0---0-0-0---|


  S S S S S S S S S S S S S S S S    S S S S S S S S S S S S S S S S
----------------------------------|----------------------------------|
----------------------------------|----------------------------------|
----------------------------------|----------------------------------|
----------------------------------|----------------------------------|
----------------------------------|----------------------------------|
--8-8-8---8-8-8---8-8-8---8-8-8---|--7-7-7---7-7-7---7-7-7---7-7-7---|


                                     PM PM PM PM       PM PM PM PM
  S S S S S S S S S S S S S S S S    S  S  S  S  Q     S  S  S  S  Q
----------------------------------|-------------------------------------|
----------------------------------|-------------------------------------|
----------------------------------|-------------------------------------|
----------------------------------|--------------8----------------10----|
----------------------------------|--------------8----------------10----|
--8-8-8---8-8-8---8-8-8---8-8-8---|--8--8--8--8--8----10-10-10-10-10----|


  W                   W                   W                   W
-------------------|-------------------|-------------------|-------------------|
-------------------|-------------------|-------------------|-------------------|
-------------------|-------------------|-------------------|-------------------|
--0----------------|--L----------------|--L----------------|--L----------------|
--0----------------|--L----------------|--L----------------|--L----------------|
--0----------------|--L----------------|--L----------------|--L----------------|


  W                   W                   W
-------------------|-------------------|-------------------|
-------------------|-------------------|-------------------|
-------------------|-------------------|-------------------|
--8----------------|--7----------------|--8----------------|
--8----------------|--7----------------|--8----------------|
--8----------------|--7----------------|--8----------------|


  PM PM PM PM       PM PM PM PM
  S  S  S  S  Q     S  S  S  S  Q        W                   W
-------------------------------------|--------------------|-------------------|
-------------------------------------|--------------------|-------------------|
-------------------------------------|--------------------|-------------------|
--------------8----------------10----|--12----------------|--L----------------|
--------------8----------------10----|--12----------------|--L----------------|
--8--8--8--8--8----10-10-10-10-10----|--12----------------|--L----------------|


  W                   W                   W                   W
-------------------|-------------------|-------------------|-------------------|
-------------------|-------------------|-------------------|-------------------|
-------------------|-------------------|-------------------|-------------------|
--L----------------|--L----------------|--8----------------|--7----------------|
--L----------------|--L----------------|--8----------------|--7----------------|
--L----------------|--L----------------|--8----------------|--7----------------|


  W                    Q    Q    Q    Q       E   E  E  E  E   E  E  E
-------------------|-----------------------|----------------------------|
-------------------|-----------------------|----------------------------|
-------------------|-----------------------|----------------------------|
--8----------------|--10----7----8----5----|----------------------------|
--8----------------|--10----7----8----5----|--8p--5--------8p--5--------|
--8----------------|--10----7----8----5----|---------0--0---------0--0--|


  E   E  E  E  E   E  E  E     E   E  E  E  E   E  E  E
----------------------------|----------------------------|
----------------------------|----------------------------|
----------------------------|----------------------------|
----------------------------|----------------------------|
--8p--5--------8p--5--------|--8p--5--------8p--5--------|
---------0--0---------0--0--|---------0--0---------0--0--|


                               PM PM PM PM PM PM PM PM PM PM PM PM PM PM PM PM
  E   E  E  E  E   E  E  E     S  S  S  S  S  S  S  S  S  S  S  S  S  S  S  S
----------------------------|--------------------------------------------------|
----------------------------|--------------------------------------------------|
----------------------------|--------------------------------------------------|
----------------------------|--------------------------------------------------|
--8p--5--------8p--5--------|--5--5--5--5--5--5--5--5--5--5--5--5--5--5--5--5--|
---------0--0---------0--0--|--------------------------------------------------|


  PM PM PM PM PM PM PM PM PM PM PM PM PM PM PM PM
  S  S  S  S  S  S  S  S  S  S  S  S  S  S  S  S
--------------------------------------------------|
--------------------------------------------------|
--------------------------------------------------|
--------------------------------------------------|
--4--4--4--4--4--4--4--4--4--4--4--4--4--4--4--4--|
--------------------------------------------------|


  PM PM PM PM PM PM PM PM PM PM PM PM PM PM PM PM
  S  S  S  S  S  S  S  S  S  S  S  S  S  S  S  S
--------------------------------------------------|
--------------------------------------------------|
--------------------------------------------------|
--------------------------------------------------|
--5--5--5--5--5--5--5--5--5--5--5--5--5--5--5--5--|
--------------------------------------------------|


  S S S S S S S S  S  S  S  S  S  S  S  S    E   E  E  E  E   E  E  E
------------------------------------------|----------------------------|
------------------------------------------|----------------------------|
------------------------------------------|----------------------------|
------------------------------------------|----------------------------|
------------------------------------------|--8p--5--------8p--5--------|
--8-8-8-8-8-8-8-8-10-10-10-10-10-10-10-10-|---------0--0---------0--0--|


  E   E  E  E  E   E  E  E     E   E  E  E  E   E  E  E
----------------------------|----------------------------|
----------------------------|----------------------------|
----------------------------|----------------------------|
----------------------------|----------------------------|
--8p--5--------8p--5--------|--8p--5--------8p--5--------|
---------0--0---------0--0--|---------0--0---------0--0--|


                               PM PM PM PM PM PM PM PM PM PM PM PM PM PM PM PM
  E   E  E  E  E   E  E  E     S  S  S  S  S  S  S  S  S  S  S  S  S  S  S  S
----------------------------|--------------------------------------------------|
----------------------------|--------------------------------------------------|
----------------------------|--------------------------------------------------|
----------------------------|--------------------------------------------------|
--8p--5--------8p--5--------|--5--5--5--5--5--5--5--5--5--5--5--5--5--5--5--5--|
---------0--0---------0--0--|--------------------------------------------------|


  PM PM PM PM PM PM PM PM PM PM PM PM PM PM PM PM
  S  S  S  S  S  S  S  S  S  S  S  S  S  S  S  S
--------------------------------------------------|
--------------------------------------------------|
--------------------------------------------------|
--------------------------------------------------|
--4--4--4--4--4--4--4--4--4--4--4--4--4--4--4--4--|
--------------------------------------------------|


  PM PM PM PM PM PM PM PM PM PM PM PM PM PM PM PM
  S  S  S  S  S  S  S  S  S  S  S  S  S  S  S  S
--------------------------------------------------|
--------------------------------------------------|
--------------------------------------------------|
--------------------------------------------------|
--5--5--5--5--5--5--5--5--5--5--5--5--5--5--5--5--|
--------------------------------------------------|


  S S S S S S S S  S  S  S  S  S  S  S  S    E   E  E  E  E   E  E  E
------------------------------------------|----------------------------|
------------------------------------------|----------------------------|
------------------------------------------|----------------------------|
------------------------------------------|----------------------------|
------------------------------------------|--8p--5--------8p--5--------|
--8-8-8-8-8-8-8-8-10-10-10-10-10-10-10-10-|---------0--0---------0--0--|


  E   E  E  E  E   E  E  E     E   E  E  E  E   E  E  E
----------------------------|----------------------------|
----------------------------|----------------------------|
----------------------------|----------------------------|
----------------------------|----------------------------|
--8p--5--------8p--5--------|--8p--5--------8p--5--------|
---------0--0---------0--0--|---------0--0---------0--0--|


                               PM PM PM PM PM PM PM PM PM PM PM PM PM PM PM PM
  E   E  E  E  E   E  E  E     S  S  S  S  S  S  S  S  S  S  S  S  S  S  S  S
----------------------------|--------------------------------------------------|
----------------------------|--------------------------------------------------|
----------------------------|--------------------------------------------------|
----------------------------|--------------------------------------------------|
--8p--5--------8p--5--------|--5--5--5--5--5--5--5--5--5--5--5--5--5--5--5--5--|
---------0--0---------0--0--|--------------------------------------------------|


  PM PM PM PM PM PM PM PM PM PM PM PM PM PM PM PM
  S  S  S  S  S  S  S  S  S  S  S  S  S  S  S  S
--------------------------------------------------|
--------------------------------------------------|
--------------------------------------------------|
--------------------------------------------------|
--4--4--4--4--4--4--4--4--4--4--4--4--4--4--4--4--|
--------------------------------------------------|


  PM PM PM PM PM PM PM PM PM PM PM PM PM PM PM PM
  S  S  S  S  S  S  S  S  S  S  S  S  S  S  S  S      Q    Q    Q    Q
--------------------------------------------------|-----------------------|
--------------------------------------------------|-----------------------|
--------------------------------------------------|-----------------------|
--------------------------------------------------|--10----7----8----5----|
--5--5--5--5--5--5--5--5--5--5--5--5--5--5--5--5--|--10----7----8----5----|
--------------------------------------------------|--10----7----8----5----|


            PM PM PM PM PM PM PM PM              PM PM PM PM PM PM PM PM
  Q    Q    S  S  S  S  S  S  S  S     Q    Q    S  S  S  S  S  S  S  S
------------------------------------|------------------------------------|
------------------------------------|------------------------------------|
------------------------------------|------------------------------------|
------------------------------------|------------------------------------|
--5----0----------------------------|--7----0----------------------------|
--5----0----5--5--5--5--5--5--5--5--|--7----0----7--7--7--7--7--7--7--7--|


            PM PM PM PM PM PM PM PM              PM PM PM PM PM PM PM PM
  Q    Q    S  S  S  S  S  S  S  S     Q    Q    S  S  S  S  S  S  S  S
------------------------------------|------------------------------------|
------------------------------------|------------------------------------|
------------------------------------|------------------------------------|
------------------------------------|------------------------------------|
--8----0----------------------------|--7----0----------------------------|
--8----0----8--8--8--8--8--8--8--8--|--7----0----7--7--7--7--7--7--7--7--|


            PM PM PM PM PM PM PM PM              PM PM PM PM PM PM PM PM
  Q    Q    S  S  S  S  S  S  S  S     Q    Q    S  S  S  S  S  S  S  S
------------------------------------|------------------------------------|
------------------------------------|------------------------------------|
------------------------------------|------------------------------------|
------------------------------------|------------------------------------|
--5----0----------------------------|--7----0----------------------------|
--5----0----5--5--5--5--5--5--5--5--|--7----0----7--7--7--7--7--7--7--7--|


            PM PM PM PM PM PM PM PM
  Q    Q    S  S  S  S  S  S  S  S     W
------------------------------------|-------------------|
------------------------------------|-------------------|
------------------------------------|-------------------|
------------------------------------|-------------------|
--8----0----------------------------|-------------------|
--8----0----8--8--8--8--8--8--8--8--|-------------------|


  E  E  E  E  E  E  E  E     E  E  E  E  E  E  E  E
--------------------------|--------------------------|
--------------------------|--------------------------|
--------------------------|--------------------------|
--------------------------|--------------------------|
--------------------------|--------------------------|
--5--5--5--0--7--7--7--0--|--8--8--8--0--7--7--7--0--|


  E  E  E  E  E  E  E  E     E  E  E  E  E  E  E  E
--------------------------|--------------------------|
--------------------------|--------------------------|
--------------------------|--------------------------|
--------------------------|--------------------------|
--------------------------|--------------------------|
--5--5--5--0--7--7--7--0--|--8--8--8--0--7--7--7--0--|


  E  E  E  E  E  E  E  E     E  E  E  E  E  E  E  E
--------------------------|--------------------------|
--------------------------|--------------------------|
--------------------------|--------------------------|
--------------------------|--------------------------|
--------------------------|--------------------------|
--5--5--5--0--7--7--7--0--|--8--8--8--0--7--7--7--0--|


  E  E  E  E  E  E  E  E     E  E  E  E  E  E  E  E
--------------------------|--------------------------|
--------------------------|--------------------------|
--------------------------|--------------------------|
--------------------------|--------------------------|
--------------------------|--------------------------|
--5--5--5--0--7--7--7--0--|--8--8--8--0--7--7--7--0--|


  E   E  E  E  E   E  E  E     E   E  E  E  E   E  E  E
----------------------------|----------------------------|
----------------------------|----------------------------|
----------------------------|----------------------------|
----------------------------|----------------------------|
--8p--5--------8p--5--------|--8p--5--------8p--5--------|
---------0--0---------0--0--|---------0--0---------0--0--|


  E   E  E  E  E   E  E  E     E   E  E  E  E   E  E  E
----------------------------|----------------------------|
----------------------------|----------------------------|
----------------------------|----------------------------|
----------------------------|----------------------------|
--8p--5--------8p--5--------|--8p--5--------8p--5--------|
---------0--0---------0--0--|---------0--0---------0--0--|


  PM PM PM PM PM PM PM PM PM PM PM PM PM PM PM PM
  S  S  S  S  S  S  S  S  S  S  S  S  S  S  S  S
--------------------------------------------------|
--------------------------------------------------|
--------------------------------------------------|
--------------------------------------------------|
--5--5--5--5--5--5--5--5--5--5--5--5--5--5--5--5--|
--------------------------------------------------|


  PM PM PM PM PM PM PM PM PM PM PM PM PM PM PM PM
  S  S  S  S  S  S  S  S  S  S  S  S  S  S  S  S
--------------------------------------------------|
--------------------------------------------------|
--------------------------------------------------|
--------------------------------------------------|
--4--4--4--4--4--4--4--4--4--4--4--4--4--4--4--4--|
--------------------------------------------------|


  PM PM PM PM PM PM PM PM PM PM PM PM PM PM PM PM
  S  S  S  S  S  S  S  S  S  S  S  S  S  S  S  S
--------------------------------------------------|
--------------------------------------------------|
--------------------------------------------------|
--------------------------------------------------|
--5--5--5--5--5--5--5--5--5--5--5--5--5--5--5--5--|
--------------------------------------------------|


  S S S S S S S S  S  S  S  S  S  S  S  S    E   E  E  E  E   E  E  E
------------------------------------------|----------------------------|
------------------------------------------|----------------------------|
------------------------------------------|----------------------------|
------------------------------------------|----------------------------|
------------------------------------------|--8p--5--------8p--5--------|
--8-8-8-8-8-8-8-8-10-10-10-10-10-10-10-10-|---------0--0---------0--0--|


  E   E  E  E  E   E  E  E     E   E  E  E  E   E  E  E
----------------------------|----------------------------|
----------------------------|----------------------------|
----------------------------|----------------------------|
----------------------------|----------------------------|
--8p--5--------8p--5--------|--8p--5--------8p--5--------|
---------0--0---------0--0--|---------0--0---------0--0--|


                               PM PM PM PM PM PM PM PM PM PM PM PM PM PM PM PM
  E   E  E  E  E   E  E  E     S  S  S  S  S  S  S  S  S  S  S  S  S  S  S  S
----------------------------|--------------------------------------------------|
----------------------------|--------------------------------------------------|
----------------------------|--------------------------------------------------|
----------------------------|--------------------------------------------------|
--8p--5--------8p--5--------|--5--5--5--5--5--5--5--5--5--5--5--5--5--5--5--5--|
---------0--0---------0--0--|--------------------------------------------------|


  PM PM PM PM PM PM PM PM PM PM PM PM PM PM PM PM
  S  S  S  S  S  S  S  S  S  S  S  S  S  S  S  S
--------------------------------------------------|
--------------------------------------------------|
--------------------------------------------------|
--------------------------------------------------|
--4--4--4--4--4--4--4--4--4--4--4--4--4--4--4--4--|
--------------------------------------------------|


  PM PM PM PM PM PM PM PM PM PM PM PM PM PM PM PM
  S  S  S  S  S  S  S  S  S  S  S  S  S  S  S  S      Q    Q    Q    Q
--------------------------------------------------|-----------------------|
--------------------------------------------------|-----------------------|
--------------------------------------------------|-----------------------|
--------------------------------------------------|--10----7----8----5----|
--5--5--5--5--5--5--5--5--5--5--5--5--5--5--5--5--|--10----7----8----5----|
--------------------------------------------------|--10----7----8----5----|


            PM PM PM PM PM PM PM PM              PM PM PM PM PM PM PM PM
  Q    Q    S  S  S  S  S  S  S  S     Q    Q    S  S  S  S  S  S  S  S
------------------------------------|------------------------------------|
------------------------------------|------------------------------------|
------------------------------------|------------------------------------|
------------------------------------|------------------------------------|
--5----0----------------------------|--7----0----------------------------|
--5----0----5--5--5--5--5--5--5--5--|--7----0----7--7--7--7--7--7--7--7--|


            PM PM PM PM PM PM PM PM              PM PM PM PM PM PM PM PM
  Q    Q    S  S  S  S  S  S  S  S     Q    Q    S  S  S  S  S  S  S  S
------------------------------------|------------------------------------|
------------------------------------|------------------------------------|
------------------------------------|------------------------------------|
------------------------------------|------------------------------------|
--8----0----------------------------|--7----0----------------------------|
--8----0----8--8--8--8--8--8--8--8--|--7----0----7--7--7--7--7--7--7--7--|


            PM PM PM PM PM PM PM PM              PM PM PM PM PM PM PM PM
  Q    Q    S  S  S  S  S  S  S  S     Q    Q    S  S  S  S  S  S  S  S
------------------------------------|------------------------------------|
------------------------------------|------------------------------------|
------------------------------------|------------------------------------|
------------------------------------|------------------------------------|
--5----0----------------------------|--7----0----------------------------|
--5----0----5--5--5--5--5--5--5--5--|--7----0----7--7--7--7--7--7--7--7--|


            PM PM PM PM PM PM PM PM
  Q    Q    S  S  S  S  S  S  S  S     W
------------------------------------|--------------------|
------------------------------------|--------------------|
------------------------------------|--------------------|
------------------------------------|--------------------|
--8----0----------------------------|--------------------|
--8----0----8--8--8--8--8--8--8--8--|--7b----------------|


  E  E  E  E  E  E  E  E     E  E  E  E  E  E  E  E
--------------------------|--------------------------|
--------------------------|--------------------------|
--------------------------|--------------------------|
--------------------------|--------------------------|
--------------------------|--------------------------|
--5--5--5--0--7--7--7--0--|--8--8--8--0--7--7--7--0--|


  E  E  E  E  E  E  E  E     E  E  E  E  E  E  E  E
--------------------------|--------------------------|
--------------------------|--------------------------|
--------------------------|--------------------------|
--------------------------|--------------------------|
--------------------------|--------------------------|
--5--5--5--0--7--7--7--0--|--8--8--8--0--7--7--7--0--|


  E  E  E  E  E  E  E  E     E  E  E  E  E  E  E  E
--------------------------|--------------------------|
--------------------------|--------------------------|
--------------------------|--------------------------|
--------------------------|--------------------------|
--------------------------|--------------------------|
--5--5--5--0--7--7--7--0--|--8--8--8--0--7--7--7--0--|


  E  E  E  E  E  E  E  E     E  E  E  E  E  E  E  E
--------------------------|--------------------------|
--------------------------|--------------------------|
--------------------------|--------------------------|
--------------------------|--------------------------|
--------------------------|--------------------------|
--5--5--5--0--7--7--7--0--|--8--8--8--0--7--7--7--0--|


  E  E  E  E  E  E  E  E     E  E  E  E  E  E  E  E
--------------------------|--------------------------|
--------------------------|--------------------------|
--------------------------|--------------------------|
--------------------------|--------------------------|
--------------------------|--------------------------|
--5--5--5--0--7--7--7--0--|--8--8--8--0--7--7--7--0--|


  E  E  E  E  E  E  E  E     E  E  E  E  E  E  E  E
--------------------------|--------------------------|
--------------------------|--------------------------|
--------------------------|--------------------------|
--------------------------|--------------------------|
--------------------------|--------------------------|
--5--5--5--0--7--7--7--0--|--8--8--8--0--7--7--7--0--|


  E  E  E  E  E  E  E  E     E  E  E  E  E  E  E  E
--------------------------|--------------------------|
--------------------------|--------------------------|
--------------------------|--------------------------|
--------------------------|--------------------------|
--------------------------|--------------------------|
--5--5--5--0--7--7--7--0--|--8--8--8--0--7--7--7--0--|


  E  E  E  E  E  E  E  E     E  E  E  E  E  E  E  E     W
--------------------------|--------------------------|-------------------|
--------------------------|--------------------------|-------------------|
--------------------------|--------------------------|-------------------|
--------------------------|--------------------------|--0----------------|
--------------------------|--------------------------|--0----------------|
--5--5--5--0--7--7--7--0--|--8--8--8--0--7--7--7--0--|--0----------------|


  W                   W                   W                   W
-------------------|-------------------|-------------------|-------------------|
-------------------|-------------------|-------------------|-------------------|
-------------------|-------------------|-------------------|-------------------|
--L----------------|--L----------------|--L----------------|--8----------------|
--L----------------|--L----------------|--L----------------|--8----------------|
--L----------------|--L----------------|--L----------------|--8----------------|


                                          PM PM PM PM       PM PM PM PM
  W                   W                   S  S  S  S  Q     S  S  S  S  Q
-------------------|-------------------|-------------------------------------|
-------------------|-------------------|-------------------------------------|
-------------------|-------------------|-------------------------------------|
--7----------------|--8----------------|--------------8----------------10----|
--7----------------|--8----------------|--------------8----------------10----|
--7----------------|--8----------------|--8--8--8--8--8----10-10-10-10-10----|


   W                   W                   W
--------------------|-------------------|-------------------|
--------------------|-------------------|-------------------|
--------------------|-------------------|-------------------|
--12----------------|--L----------------|--L----------------|
--12----------------|--L----------------|--L----------------|
--12----------------|--L----------------|--L----------------|


  W                   W                   W                   W
-------------------|-------------------|-------------------|-------------------|
-------------------|-------------------|-------------------|-------------------|
-------------------|-------------------|-------------------|-------------------|
--L----------------|--8----------------|--7----------------|--8----------------|
--L----------------|--8----------------|--7----------------|--8----------------|
--L----------------|--8----------------|--7----------------|--8----------------|


   Q    Q    Q    Q       W                   H.           Q
-----------------------|-------------------|---------------------|
-----------------------|-------------------|---------------------|
-----------------------|-------------------|---------------------|
--10----7----8----5----|--0----------------|--L------------------|
--10----7----8----5----|--0----------------|--L------------7\----|
--10----7----8----5----|--0----------------|--L------------7\----|


  W                   E  E  E  S S S S S S Q        E  E  E  E
-------------------|-----------------------------|--------------|
-------------------|-----------------------------|--------------|
-------------------|-----------------------------|--------------|
--0----------------|--L--L--L--------------------|--------------|
--0----------------|--L--L--L--------------------|-----1-----3--|
--0----------------|--L--L--L--1-1-1-1-0-0-4~----|--1-----3-----|


  W                   E  E  E  S S S S S S Q        E  E  E  E
-------------------|-----------------------------|--------------|
-------------------|-----------------------------|--------------|
-------------------|-----------------------------|--------------|
--0----------------|--L--L--L--------------------|--------------|
--0----------------|--L--L--L--------------------|-----4-----3--|
--0----------------|--L--L--L--1-1-1-1-0-0-4~----|--4-----3-----|


  W                   E  E  E  S S S S S S Q        E  E  E  E
-------------------|-----------------------------|--------------|
-------------------|-----------------------------|--------------|
-------------------|-----------------------------|--------------|
--0----------------|--L--L--L--------------------|--------------|
--0----------------|--L--L--L--------------------|-----1-----3--|
--0----------------|--L--L--L--1-1-1-1-0-0-4~----|--1-----3-----|


  W                   E  E  E  S S S S S S Q        E  E  E  E  E  E  E  E
-------------------|-----------------------------|--------------------------|
-------------------|-----------------------------|--------------------------|
-------------------|-----------------------------|--------------------------|
--0----------------|--L--L--L--------------------|--------------------------|
--0----------------|--L--L--L--------------------|-----4-----3-----1-----3--|
--0----------------|--L--L--L--1-1-1-1-0-0-4~----|--4-----3-----1-----3-----|


     PM PM PM PM PM PM PM    PM PM PM
  E  E  E  E  E  E  E  E     E  E  E  S S S S S S Q        E  E  E  E
--------------------------|-----------------------------|--------------|
--------------------------|-----------------------------|--------------|
--------------------------|-----------------------------|--------------|
--------------------------|-----------------------------|--------------|
--0--0--0--0--0--0--0--0--|--0--0--0--------------------|-----1-----3--|
--0--0--0--0--0--0--0--0--|--0--0--0--1-1-1-1-0-0-4~----|--1-----3-----|


     PM PM PM PM PM PM PM    PM PM PM
  E  E  E  E  E  E  E  E     E  E  E  S S S S S S Q        E  E  E  E
--------------------------|-----------------------------|--------------|
--------------------------|-----------------------------|--------------|
--------------------------|-----------------------------|--------------|
--------------------------|-----------------------------|--------------|
--0--0--0--0--0--0--0--0--|--0--0--0--------------------|-----4-----3--|
--0--0--0--0--0--0--0--0--|--0--0--0--1-1-1-1-0-0-4~----|--4-----3-----|


     PM PM PM PM PM PM PM    PM PM PM
  E  E  E  E  E  E  E  E     E  E  E  S S S S S S Q        E  E  E  E
--------------------------|-----------------------------|--------------|
--------------------------|-----------------------------|--------------|
--------------------------|-----------------------------|--------------|
--------------------------|-----------------------------|--------------|
--0--0--0--0--0--0--0--0--|--0--0--0--------------------|-----1-----3--|
--0--0--0--0--0--0--0--0--|--0--0--0--1-1-1-1-0-0-4~----|--1-----3-----|


     PM PM PM PM PM PM PM    PM PM PM
  E  E  E  E  E  E  E  E     E  E  E  S S S S S S Q
--------------------------|-----------------------------|
--------------------------|-----------------------------|
--------------------------|-----------------------------|
--------------------------|-----------------------------|
--0--0--0--0--0--0--0--0--|--0--0--0--------------------|
--0--0--0--0--0--0--0--0--|--0--0--0--1-1-1-1-0-0-4~----|


  E  E  E  E  E  E  E  E     E  E  E  E  E  E  E  E
--------------------------|--------------------------|
--------------------------|--------------------------|
--------------------------|--------------------------|
--------------------------|--------------------------|
-----4-----3-----1-----3--|--0--0--0--0--0--0--0--0--|
--4-----3-----1-----3-----|--0--0--0--0--0--0--0--0--|


  E  E  E  S S S S S S Q        E  E  E  E     E  E  E  E  E  E  E  E
-----------------------------|--------------|--------------------------|
-----------------------------|--------------|--------------------------|
-----------------------------|--------------|--------------------------|
-----------------------------|--------------|--------------------------|
--0--0--0--------------------|-----1-----3--|--0--0--0--0--0--0--0--0--|
--0--0--0--1-1-1-1-0-0-4~----|--1-----3-----|--0--0--0--0--0--0--0--0--|


  E  E  E  S S S S S S Q        E  E  E  E     E  E  E  E  E  E  E  E
-----------------------------|--------------|--------------------------|
-----------------------------|--------------|--------------------------|
-----------------------------|--------------|--------------------------|
-----------------------------|--------------|--------------------------|
--0--0--0--------------------|-----4-----3--|--0--0--0--0--0--0--0--0--|
--0--0--0--1-1-1-1-0-0-4~----|--4-----3-----|--0--0--0--0--0--0--0--0--|


  E  E  E  S S S S S S Q        E  E  E  E     E  E  E  E  E  E  E  E
-----------------------------|--------------|--------------------------|
-----------------------------|--------------|--------------------------|
-----------------------------|--------------|--------------------------|
-----------------------------|--------------|--------------------------|
--0--0--0--------------------|-----1-----3--|--0--0--0--0--0--0--0--0--|
--0--0--0--1-1-1-1-0-0-4~----|--1-----3-----|--0--0--0--0--0--0--0--0--|


  E  E  E  S S S S S S Q        E  E  E  E  E  E  E  E
-----------------------------|--------------------------|
-----------------------------|--------------------------|
-----------------------------|--------------------------|
-----------------------------|--------------------------|
--0--0--0--------------------|-----4-----3-----1-----3--|
--0--0--0--1-1-1-1-0-0-4~----|--4-----3-----1-----3-----|


  E  E  E  E  E  E  E  E     E  E  E  E  E  E  E  E
--------------------------|--------------------------|
--------------------------|--------------------------|
--------------------------|--------------------------|
--7--7--7--7--7--7--7--7--|--7--7--7--7--7--7--7--7--|
--7--7--7--7--7--7--7--7--|--7--7--7--7--7--7--7--7--|
--7--7--7--7--7--7--7--7--|--7--7--7--7--7--7--7--7--|


  E  E  E  E  E  E  E  E     E  E  E  E  E  E  E  E
--------------------------|--------------------------|
--------------------------|--------------------------|
--------------------------|--------------------------|
--3--3--3--3--3--3--3--3--|--5--5--5--5--5--5--5--5--|
--3--3--3--3--3--3--3--3--|--5--5--5--5--5--5--5--5--|
--3--3--3--3--3--3--3--3--|--5--5--5--5--5--5--5--5--|


  E  E  E  E  E  E  E  E     E  E  E  E  E  E  E  E
--------------------------|--------------------------|
--------------------------|--------------------------|
--------------------------|--------------------------|
--7--7--7--7--7--7--7--7--|--7--7--7--7--7--7--7--7--|
--7--7--7--7--7--7--7--7--|--7--7--7--7--7--7--7--7--|
--7--7--7--7--7--7--7--7--|--7--7--7--7--7--7--7--7--|


              PM PM PM PM    PM PM PM PM PM PM PM PM
  E  E  E  E  E  E  E  E     E  E  E  E  E  E  E  E
--------------------------|--------------------------|
--------------------------|--------------------------|
--------------------------|--------------------------|
--3--3--3--3--3--3--3--3--|--0--0--0--0--0--0--0--0--|
--3--3--3--3--3--3--3--3--|--0--0--0--0--0--0--0--0--|
--3--3--3--3--3--3--3--3--|--0--0--0--0--0--0--0--0--|


  E  E  E  E  E  E  E  E     E  E  E  E  E  E  E  E
--------------------------|--------------------------|
--------------------------|--------------------------|
--------------------------|--------------------------|
--7--7--7--7--7--7--7--7--|--7--7--7--7--7--7--7--7--|
--7--7--7--7--7--7--7--7--|--7--7--7--7--7--7--7--7--|
--7--7--7--7--7--7--7--7--|--7--7--7--7--7--7--7--7--|


  E  E  E  E  E  E  E  E     E  E  E  E  E  E  E  E
--------------------------|--------------------------|
--------------------------|--------------------------|
--------------------------|--------------------------|
--3--3--3--3--3--3--3--3--|--5--5--5--5--5--5--5--5--|
--3--3--3--3--3--3--3--3--|--5--5--5--5--5--5--5--5--|
--3--3--3--3--3--3--3--3--|--5--5--5--5--5--5--5--5--|


  E  E  E  E  E  E  E  E     E  E  E  E  E  E  E  E
--------------------------|--------------------------|
--------------------------|--------------------------|
--------------------------|--------------------------|
--7--7--7--7--7--7--7--7--|--7--7--7--7--7--7--7--7--|
--7--7--7--7--7--7--7--7--|--7--7--7--7--7--7--7--7--|
--7--7--7--7--7--7--7--7--|--7--7--7--7--7--7--7--7--|


              PM PM PM PM    PM PM PM PM PM PM PM PM
  E  E  E  E  E  E  E  E     E  E  E  E  E  E  E  E
--------------------------|--------------------------|
--------------------------|--------------------------|
--------------------------|--------------------------|
--3--3--3--3--3--3--3--3--|--0--0--0--0--0--0--0--0--|
--3--3--3--3--3--3--3--3--|--0--0--0--0--0--0--0--0--|
--3--3--3--3--3--3--3--3--|--0--0--0--0--0--0--0--0--|


  E  E  E  E  E  E  E  E     E  E  E  E  E  E  E  E
--------------------------|--------------------------|
--------------------------|--------------------------|
--------------------------|--------------------------|
--7--7--7--7--7--7--7--7--|--7--7--7--7--7--7--7--7--|
--7--7--7--7--7--7--7--7--|--7--7--7--7--7--7--7--7--|
--7--7--7--7--7--7--7--7--|--7--7--7--7--7--7--7--7--|


  E  E  E  E  E  E  E  E      E   E   E   E   E   E   E   E
--------------------------|----------------------------------|
--------------------------|----------------------------------|
--------------------------|----------------------------------|
--3--3--3--3--3--3--3--3--|--10--10--10--10--10--10--10--10--|
--3--3--3--3--3--3--3--3--|--10--10--10--10--10--10--10--10--|
--3--3--3--3--3--3--3--3--|--10--10--10--10--10--10--10--10--|


  E  E  E  E  E  E  E  E     E  E  E  E  E  E  E  E
--------------------------|--------------------------|
--------------------------|--------------------------|
--------------------------|--------------------------|
--7--7--7--7--7--7--7--7--|--7--7--7--7--7--7--7--7--|
--7--7--7--7--7--7--7--7--|--7--7--7--7--7--7--7--7--|
--7--7--7--7--7--7--7--7--|--7--7--7--7--7--7--7--7--|


              PM PM PM PM    PM PM PM PM PM PM PM PM
  E  E  E  E  E  E  E  E     E  E  E  E  E  E  E  E
--------------------------|--------------------------|
--------------------------|--------------------------|
--------------------------|--------------------------|
--3--3--3--3--3--3--3--3--|--0--0--0--0--0--0--0--0--|
--3--3--3--3--3--3--3--3--|--0--0--0--0--0--0--0--0--|
--3--3--3--3--3--3--3--3--|--0--0--0--0--0--0--0--0--|


  E  E  E  E  E  E  E  E     E  E  E  E  E  E  E  E
--------------------------|--------------------------|
--------------------------|--------------------------|
--------------------------|--------------------------|
--7--7--7--7--7--7--7--7--|--7--7--7--7--7--7--7--7--|
--7--7--7--7--7--7--7--7--|--7--7--7--7--7--7--7--7--|
--7--7--7--7--7--7--7--7--|--7--7--7--7--7--7--7--7--|


  E  E  E  E  E  E  E  E      E   E   E   E   E   E   E   E
--------------------------|----------------------------------|
--------------------------|----------------------------------|
--------------------------|----------------------------------|
--3--3--3--3--3--3--3--3--|--10--10--10--10--10--10--10--10--|
--3--3--3--3--3--3--3--3--|--10--10--10--10--10--10--10--10--|
--3--3--3--3--3--3--3--3--|--10--10--10--10--10--10--10--10--|


  E  E  E  E  E  E  E  E     E  E  E  E  E  E  E  E
--------------------------|--------------------------|
--------------------------|--------------------------|
--------------------------|--------------------------|
--7--7--7--7--7--7--7--7--|--7--7--7--7--7--7--7--7--|
--7--7--7--7--7--7--7--7--|--7--7--7--7--7--7--7--7--|
--7--7--7--7--7--7--7--7--|--7--7--7--7--7--7--7--7--|


              PM PM PM PM    PM PM PM PM PM PM PM PM
  E  E  E  E  E  E  E  E     E  E  E  E  E  E  E  E
--------------------------|--------------------------|
--------------------------|--------------------------|
--------------------------|--------------------------|
--3--3--3--3--3--3--3--3--|--0--0--0--0--0--0--0--0--|
--3--3--3--3--3--3--3--3--|--0--0--0--0--0--0--0--0--|
--3--3--3--3--3--3--3--3--|--0--0--0--0--0--0--0--0--|


  E  E  E  E  E  E  E  E     E  E  E  E  E  E  E  E
--------------------------|--------------------------|
--------------------------|--------------------------|
--------------------------|--------------------------|
--7--7--7--7--7--7--7--7--|--7--7--7--7--7--7--7--7--|
--7--7--7--7--7--7--7--7--|--7--7--7--7--7--7--7--7--|
--7--7--7--7--7--7--7--7--|--7--7--7--7--7--7--7--7--|


  E  E  E  E  E  E  E  E      E   E   E   E   E   E   E   E
--------------------------|----------------------------------|
--------------------------|----------------------------------|
--------------------------|----------------------------------|
--3--3--3--3--3--3--3--3--|--10--10--10--10--10--10--10--10--|
--3--3--3--3--3--3--3--3--|--10--10--10--10--10--10--10--10--|
--3--3--3--3--3--3--3--3--|--10--10--10--10--10--10--10--10--|


  E  E  E  E  E  E  E  E     E  E  E  E  E  E  E  E
--------------------------|--------------------------|
--------------------------|--------------------------|
--------------------------|--------------------------|
--7--7--7--7--7--7--7--7--|--7--7--7--7--7--7--7--7--|
--7--7--7--7--7--7--7--7--|--7--7--7--7--7--7--7--7--|
--7--7--7--7--7--7--7--7--|--7--7--7--7--7--7--7--7--|


              PM PM PM PM    PM
  E  E  E  E  E  E  E  E     Q    H.
--------------------------|--------------------||
--------------------------|--------------------||
--------------------------|--------------------||
--3--3--3--3--3--3--3--3--|--0-----------------||
--3--3--3--3--3--3--3--3--|--0-----------------||
--3--3--3--3--3--3--3--3--|--0-----------------||





*************************************************************************
*************************************************************************

Guitar 2



     PM PM PM   PM PM PM   PM PM PM   PM PM PM
     S  S  S  S S  S  S  S S  S  S  S S  S  S  S
D||----------------------------------------------|
A||----------------------------------------------|
F||--7--7--7---------------7--7--7---------------|
C||-------------7--7--7---------------7--7--7----|
G||----------------------------------------------|
C||----------------------------------------------|


  PM PM PM   PM PM PM   PM PM PM   PM PM PM
  S  S  S  S S  S  S  S S  S  S  S S  S  S  S
----------------------------------------------|
----------------------------------------------|
--7--7--7---------------7--7--7---------------|
-------------7--7--7---------------7--7--7----|
----------------------------------------------|
----------------------------------------------|


  PM PM PM   PM PM PM   PM PM PM   PM PM PM
  S  S  S  S S  S  S  S S  S  S  S S  S  S  S
----------------------------------------------|
----------------------------------------------|
--7--7--7---------------7--7--7---------------|
-------------7--7--7---------------7--7--7----|
----------------------------------------------|
----------------------------------------------|


  PM PM PM   PM PM PM   PM PM PM   PM PM PM
  S  S  S  S S  S  S  S S  S  S  S S  S  S  S
----------------------------------------------|
----------------------------------------------|
--7--7--7---------------7--7--7---------------|
-------------7--7--7---------------7--7--7----|
----------------------------------------------|
----------------------------------------------|


  PM PM PM   PM PM PM   PM PM PM   PM PM PM
  S  S  S  S S  S  S  S S  S  S  S S  S  S  S
----------------------------------------------|
----------------------------------------------|
--7--7--7---------------7--7--7---------------|
-------------7--7--7---------------7--7--7----|
----------------------------------------------|
----------------------------------------------|


  PM PM PM   PM PM PM   PM PM PM   PM PM PM
  S  S  S  S S  S  S  S S  S  S  S S  S  S  S
----------------------------------------------|
----------------------------------------------|
--7--7--7---------------7--7--7---------------|
-------------7--7--7---------------7--7--7----|
----------------------------------------------|
----------------------------------------------|


  PM PM PM   PM PM PM   PM PM PM   PM PM PM
  S  S  S  S S  S  S  S S  S  S  S S  S  S  S
----------------------------------------------|
----------------------------------------------|
----------------------------------------------|
--8--8--8---------------8--8--8---------------|
-------------8--8--8---------------8--8--8----|
----------------------------------------------|


  PM PM PM   PM PM PM   PM PM PM   PM PM PM
  S  S  S  S S  S  S  S S  S  S  S S  S  S  S
----------------------------------------------|
----------------------------------------------|
----------------------------------------------|
--7--7--7---------------7--7--7---------------|
-------------7--7--7---------------7--7--7----|
----------------------------------------------|


  PM PM PM   PM PM PM   PM PM PM   PM PM PM
  S  S  S  S S  S  S  S S  S  S  S S  S  S  S
----------------------------------------------|
----------------------------------------------|
----------------------------------------------|
--8--8--8---------------8--8--8---------------|
-------------8--8--8---------------8--8--8----|
----------------------------------------------|


  PM PM PM PM       PM PM PM PM
  S  S  S  S  Q     S  S  S  S  Q       S S S S  S  S  S S S S S S  S  S  S S
-------------------------------------|----------------------------------------|
-------------------------------------|----------------------------------------|
-------------------------------------|--7-7-7---10-10-10---9-9-9--------------|
--------------8----------------10----|-----------------------------10-10-10---|
--------------8----------------10----|----------------------------------------|
--8--8--8--8--8----10-10-10-10-10----|----------------------------------------|


  S S S S  S  S  S S S S S S  S  S  S S
----------------------------------------|
----------------------------------------|
--7-7-7---10-10-10---9-9-9--------------|
-----------------------------10-10-10---|
----------------------------------------|
----------------------------------------|


  S S S S  S  S  S S S S S S  S  S  S S
----------------------------------------|
----------------------------------------|
--7-7-7---10-10-10---9-9-9--------------|
-----------------------------10-10-10---|
----------------------------------------|
----------------------------------------|


  S S S S  S  S  S S S S S S  S  S  S S
----------------------------------------|
----------------------------------------|
--7-7-7---10-10-10---9-9-9--------------|
-----------------------------10-10-10---|
----------------------------------------|
----------------------------------------|


  S S S S  S  S  S S S S S S  S  S  S S
----------------------------------------|
----------------------------------------|
--7-7-7---10-10-10---9-9-9--------------|
-----------------------------10-10-10---|
----------------------------------------|
----------------------------------------|


  S S S S  S  S  S S S S S S  S  S  S S
----------------------------------------|
----------------------------------------|
--7-7-7---10-10-10---9-9-9--------------|
-----------------------------10-10-10---|
----------------------------------------|
----------------------------------------|


  S S S S  S  S  S S S S S S  S  S  S S
----------------------------------------|
----------------------------------------|
--7-7-7---10-10-10---9-9-9--------------|
-----------------------------10-10-10---|
----------------------------------------|
----------------------------------------|


  S S S S  S  S  S S S S S S  S  S  S S
----------------------------------------|
----------------------------------------|
--7-7-7---10-10-10---9-9-9--------------|
-----------------------------10-10-10---|
----------------------------------------|
----------------------------------------|


  S S S S  S  S  S S S S S S  S  S  S S
----------------------------------------|
----------------------------------------|
--7-7-7---10-10-10---9-9-9--------------|
-----------------------------10-10-10---|
----------------------------------------|
----------------------------------------|


  S S S S  S  S  S S S S S S  S  S  S S
----------------------------------------|
----------------------------------------|
--7-7-7---10-10-10---9-9-9--------------|
-----------------------------10-10-10---|
----------------------------------------|
----------------------------------------|


  S S S S  S  S  S S S S S S  S  S  S S
----------------------------------------|
----------------------------------------|
--7-7-7---10-10-10---9-9-9--------------|
-----------------------------10-10-10---|
----------------------------------------|
----------------------------------------|


  S S S S  S  S  S S S S S S  S  S  S S
----------------------------------------|
----------------------------------------|
--7-7-7---10-10-10---9-9-9--------------|
-----------------------------10-10-10---|
----------------------------------------|
----------------------------------------|


  S S S S  S  S  S S S S S S  S  S  S S
----------------------------------------|
----------------------------------------|
--7-7-7---10-10-10---9-9-9--------------|
-----------------------------10-10-10---|
----------------------------------------|
----------------------------------------|


  S S S S  S  S  S S S S S S  S  S  S S
----------------------------------------|
----------------------------------------|
--7-7-7---10-10-10---9-9-9--------------|
-----------------------------10-10-10---|
----------------------------------------|
----------------------------------------|


  S S S S  S  S  S S S S S S  S  S  S S     Q    Q    Q    Q
----------------------------------------|-----------------------|
----------------------------------------|-----------------------|
--7-7-7---10-10-10---9-9-9--------------|-----------------------|
-----------------------------10-10-10---|--10----7----8----5----|
----------------------------------------|--10----7----8----5----|
----------------------------------------|--10----7----8----5----|


  E   E  E  E  E   E  E  E     E   E  E  E  E   E  E  E
----------------------------|----------------------------|
----------------------------|----------------------------|
----------------------------|----------------------------|
----------------------------|----------------------------|
--8p--5--------8p--5--------|--8p--5--------8p--5--------|
---------0--0---------0--0--|---------0--0---------0--0--|


  E   E  E  E  E   E  E  E     E   E  E  E  E   E  E  E
----------------------------|----------------------------|
----------------------------|----------------------------|
----------------------------|----------------------------|
----------------------------|----------------------------|
--8p--5--------8p--5--------|--8p--5--------8p--5--------|
---------0--0---------0--0--|---------0--0---------0--0--|


  PM PM PM PM PM PM PM PM PM PM PM PM PM PM PM PM
  S  S  S  S  S  S  S  S  S  S  S  S  S  S  S  S
--------------------------------------------------|
--------------------------------------------------|
--------------------------------------------------|
--------------------------------------------------|
--5--5--5--5--5--5--5--5--5--5--5--5--5--5--5--5--|
--------------------------------------------------|


  PM PM PM PM PM PM PM PM PM PM PM PM PM PM PM PM
  S  S  S  S  S  S  S  S  S  S  S  S  S  S  S  S
--------------------------------------------------|
--------------------------------------------------|
--------------------------------------------------|
--------------------------------------------------|
--4--4--4--4--4--4--4--4--4--4--4--4--4--4--4--4--|
--------------------------------------------------|


  PM PM PM PM PM PM PM PM PM PM PM PM PM PM PM PM
  S  S  S  S  S  S  S  S  S  S  S  S  S  S  S  S
--------------------------------------------------|
--------------------------------------------------|
--------------------------------------------------|
--------------------------------------------------|
--5--5--5--5--5--5--5--5--5--5--5--5--5--5--5--5--|
--------------------------------------------------|


  S S S S S S S S  S  S  S  S  S  S  S  S    E   E  E  E  E   E  E  E
------------------------------------------|----------------------------|
------------------------------------------|----------------------------|
------------------------------------------|----------------------------|
------------------------------------------|----------------------------|
------------------------------------------|--8p--5--------8p--5--------|
--8-8-8-8-8-8-8-8-10-10-10-10-10-10-10-10-|---------0--0---------0--0--|


  E   E  E  E  E   E  E  E     E   E  E  E  E   E  E  E
----------------------------|----------------------------|
----------------------------|----------------------------|
----------------------------|----------------------------|
----------------------------|----------------------------|
--8p--5--------8p--5--------|--8p--5--------8p--5--------|
---------0--0---------0--0--|---------0--0---------0--0--|


                               PM PM PM PM PM PM PM PM PM PM PM PM PM PM PM PM
  E   E  E  E  E   E  E  E     S  S  S  S  S  S  S  S  S  S  S  S  S  S  S  S
----------------------------|--------------------------------------------------|
----------------------------|--------------------------------------------------|
----------------------------|--------------------------------------------------|
----------------------------|--------------------------------------------------|
--8p--5--------8p--5--------|--5--5--5--5--5--5--5--5--5--5--5--5--5--5--5--5--|
---------0--0---------0--0--|--------------------------------------------------|


  PM PM PM PM PM PM PM PM PM PM PM PM PM PM PM PM
  S  S  S  S  S  S  S  S  S  S  S  S  S  S  S  S
--------------------------------------------------|
--------------------------------------------------|
--------------------------------------------------|
--------------------------------------------------|
--4--4--4--4--4--4--4--4--4--4--4--4--4--4--4--4--|
--------------------------------------------------|


  PM PM PM PM PM PM PM PM PM PM PM PM PM PM PM PM
  S  S  S  S  S  S  S  S  S  S  S  S  S  S  S  S
--------------------------------------------------|
--------------------------------------------------|
--------------------------------------------------|
--------------------------------------------------|
--5--5--5--5--5--5--5--5--5--5--5--5--5--5--5--5--|
--------------------------------------------------|


  S S S S S S S S  S  S  S  S  S  S  S  S    E   E  E  E  E   E  E  E
------------------------------------------|----------------------------|
------------------------------------------|----------------------------|
------------------------------------------|----------------------------|
------------------------------------------|----------------------------|
------------------------------------------|--8p--5--------8p--5--------|
--8-8-8-8-8-8-8-8-10-10-10-10-10-10-10-10-|---------0--0---------0--0--|


  E   E  E  E  E   E  E  E     E   E  E  E  E   E  E  E
----------------------------|----------------------------|
----------------------------|----------------------------|
----------------------------|----------------------------|
----------------------------|----------------------------|
--8p--5--------8p--5--------|--8p--5--------8p--5--------|
---------0--0---------0--0--|---------0--0---------0--0--|


                               PM PM PM PM PM PM PM PM PM PM PM PM PM PM PM PM
  E   E  E  E  E   E  E  E     S  S  S  S  S  S  S  S  S  S  S  S  S  S  S  S
----------------------------|--------------------------------------------------|
----------------------------|--------------------------------------------------|
----------------------------|--------------------------------------------------|
----------------------------|--------------------------------------------------|
--8p--5--------8p--5--------|--5--5--5--5--5--5--5--5--5--5--5--5--5--5--5--5--|
---------0--0---------0--0--|--------------------------------------------------|


  PM PM PM PM PM PM PM PM PM PM PM PM PM PM PM PM
  S  S  S  S  S  S  S  S  S  S  S  S  S  S  S  S
--------------------------------------------------|
--------------------------------------------------|
--------------------------------------------------|
--------------------------------------------------|
--4--4--4--4--4--4--4--4--4--4--4--4--4--4--4--4--|
--------------------------------------------------|


  PM PM PM PM PM PM PM PM PM PM PM PM PM PM PM PM
  S  S  S  S  S  S  S  S  S  S  S  S  S  S  S  S      Q    Q    Q    Q
--------------------------------------------------|-----------------------|
--------------------------------------------------|-----------------------|
--------------------------------------------------|-----------------------|
--------------------------------------------------|--10----7----8----5----|
--5--5--5--5--5--5--5--5--5--5--5--5--5--5--5--5--|--10----7----8----5----|
--------------------------------------------------|--10----7----8----5----|


   Q     Q    Q    Q        Q     Q    Q    Q        Q     Q    Q    Q
------------------------|------------------------|------------------------|
------------------------|------------------------|------------------------|
--12--------------------|--14--------------------|--15--------------------|
--------12--------------|--------12--------------|--------12--------------|
------------------------|------------------------|------------------------|
------------------------|------------------------|------------------------|


   Q     Q    Q    Q        Q     Q    Q    Q        Q     Q    Q    Q
------------------------|------------------------|------------------------|
------------------------|------------------------|------------------------|
--14--------------------|--12--------------------|--14--------------------|
--------12--------------|--------12--------------|--------12--------------|
------------------------|------------------------|------------------------|
------------------------|------------------------|------------------------|


   Q     Q    Q    Q       W                   E  E  E  E  E  E  E  E
------------------------|-------------------|--------------------------|
------------------------|-------------------|--------------------------|
--15--------------------|-------------------|--------------------------|
--------12--------------|-------------------|--------------------------|
------------------------|-------------------|--------------------------|
------------------------|-------------------|--5--5--5--0--7--7--7--0--|


  E  E  E  E  E  E  E  E     E  E  E  E  E  E  E  E
--------------------------|--------------------------|
--------------------------|--------------------------|
--------------------------|--------------------------|
--------------------------|--------------------------|
--------------------------|--------------------------|
--8--8--8--0--7--7--7--0--|--5--5--5--0--7--7--7--0--|


  E  E  E  E  E  E  E  E     E  E  E  E  E  E  E  E
--------------------------|--------------------------|
--------------------------|--------------------------|
--------------------------|--------------------------|
--------------------------|--------------------------|
--------------------------|--------------------------|
--8--8--8--0--7--7--7--0--|--5--5--5--0--7--7--7--0--|


  E  E  E  E  E  E  E  E     E  E  E  E  E  E  E  E
--------------------------|--------------------------|
--------------------------|--------------------------|
--------------------------|--------------------------|
--------------------------|--------------------------|
--------------------------|--------------------------|
--8--8--8--0--7--7--7--0--|--5--5--5--0--7--7--7--0--|


  E  E  E  E  E  E  E  E     E   E  E  E  E   E  E  E
--------------------------|----------------------------|
--------------------------|----------------------------|
--------------------------|----------------------------|
--------------------------|----------------------------|
--------------------------|--8p--5--------8p--5--------|
--8--8--8--0--7--7--7--0--|---------0--0---------0--0--|


  E   E  E  E  E   E  E  E     E   E  E  E  E   E  E  E
----------------------------|----------------------------|
----------------------------|----------------------------|
----------------------------|----------------------------|
----------------------------|----------------------------|
--8p--5--------8p--5--------|--8p--5--------8p--5--------|
---------0--0---------0--0--|---------0--0---------0--0--|


                               PM PM PM PM PM PM PM PM PM PM PM PM PM PM PM PM
  E   E  E  E  E   E  E  E     S  S  S  S  S  S  S  S  S  S  S  S  S  S  S  S
----------------------------|--------------------------------------------------|
----------------------------|--------------------------------------------------|
----------------------------|--------------------------------------------------|
----------------------------|--------------------------------------------------|
--8p--5--------8p--5--------|--5--5--5--5--5--5--5--5--5--5--5--5--5--5--5--5--|
---------0--0---------0--0--|--------------------------------------------------|


  PM PM PM PM PM PM PM PM PM PM PM PM PM PM PM PM
  S  S  S  S  S  S  S  S  S  S  S  S  S  S  S  S
--------------------------------------------------|
--------------------------------------------------|
--------------------------------------------------|
--------------------------------------------------|
--4--4--4--4--4--4--4--4--4--4--4--4--4--4--4--4--|
--------------------------------------------------|


  PM PM PM PM PM PM PM PM PM PM PM PM PM PM PM PM
  S  S  S  S  S  S  S  S  S  S  S  S  S  S  S  S
--------------------------------------------------|
--------------------------------------------------|
--------------------------------------------------|
--------------------------------------------------|
--5--5--5--5--5--5--5--5--5--5--5--5--5--5--5--5--|
--------------------------------------------------|


  S S S S S S S S  S  S  S  S  S  S  S  S    E   E  E  E  E   E  E  E
------------------------------------------|----------------------------|
------------------------------------------|----------------------------|
------------------------------------------|----------------------------|
------------------------------------------|----------------------------|
------------------------------------------|--8p--5--------8p--5--------|
--8-8-8-8-8-8-8-8-10-10-10-10-10-10-10-10-|---------0--0---------0--0--|


  E   E  E  E  E   E  E  E     E   E  E  E  E   E  E  E
----------------------------|----------------------------|
----------------------------|----------------------------|
----------------------------|----------------------------|
----------------------------|----------------------------|
--8p--5--------8p--5--------|--8p--5--------8p--5--------|
---------0--0---------0--0--|---------0--0---------0--0--|


                               PM PM PM PM PM PM PM PM PM PM PM PM PM PM PM PM
  E   E  E  E  E   E  E  E     S  S  S  S  S  S  S  S  S  S  S  S  S  S  S  S
----------------------------|--------------------------------------------------|
----------------------------|--------------------------------------------------|
----------------------------|--------------------------------------------------|
----------------------------|--------------------------------------------------|
--8p--5--------8p--5--------|--5--5--5--5--5--5--5--5--5--5--5--5--5--5--5--5--|
---------0--0---------0--0--|--------------------------------------------------|


  PM PM PM PM PM PM PM PM PM PM PM PM PM PM PM PM
  S  S  S  S  S  S  S  S  S  S  S  S  S  S  S  S
--------------------------------------------------|
--------------------------------------------------|
--------------------------------------------------|
--------------------------------------------------|
--4--4--4--4--4--4--4--4--4--4--4--4--4--4--4--4--|
--------------------------------------------------|


  PM PM PM PM PM PM PM PM PM PM PM PM PM PM PM PM
  S  S  S  S  S  S  S  S  S  S  S  S  S  S  S  S      Q    Q    Q    Q
--------------------------------------------------|-----------------------|
--------------------------------------------------|-----------------------|
--------------------------------------------------|-----------------------|
--------------------------------------------------|--10----7----8----5----|
--5--5--5--5--5--5--5--5--5--5--5--5--5--5--5--5--|--10----7----8----5----|
--------------------------------------------------|--10----7----8----5----|


   Q     Q    Q    Q        Q     Q    Q    Q        Q     Q    Q    Q
------------------------|------------------------|------------------------|
------------------------|------------------------|------------------------|
--12--------------------|--14--------------------|--15--------------------|
--------12--------------|--------12--------------|--------12--------------|
------------------------|------------------------|------------------------|
------------------------|------------------------|------------------------|


   Q     Q    Q    Q        Q     Q    Q    Q        Q     Q    Q    Q
------------------------|------------------------|------------------------|
------------------------|------------------------|------------------------|
--14--------------------|--12--------------------|--14--------------------|
--------12--------------|--------12--------------|--------12--------------|
------------------------|------------------------|------------------------|
------------------------|------------------------|------------------------|


   Q     Q    Q    Q        W                     E  E  E  E  E  E  E  E
------------------------|----------------------|--------------------------|
------------------------|----------------------|--------------------------|
--15--------------------|--14br----------------|--------------------------|
--------12--------------|----------------------|--------------------------|
------------------------|----------------------|--------------------------|
------------------------|----------------------|--5--5--5--0--7--7--7--0--|


  E  E  E  E  E  E  E  E     E  E  E  E  E  E  E  E
--------------------------|--------------------------|
--------------------------|--------------------------|
--------------------------|--------------------------|
--------------------------|--------------------------|
--------------------------|--------------------------|
--8--8--8--0--7--7--7--0--|--5--5--5--0--7--7--7--0--|


  E  E  E  E  E  E  E  E     E  E  E  E  E  E  E  E
--------------------------|--------------------------|
--------------------------|--------------------------|
--------------------------|--------------------------|
--------------------------|--------------------------|
--------------------------|--------------------------|
--8--8--8--0--7--7--7--0--|--5--5--5--0--7--7--7--0--|


  E  E  E  E  E  E  E  E     E  E  E  E  E  E  E  E
--------------------------|--------------------------|
--------------------------|--------------------------|
--------------------------|--------------------------|
--------------------------|--------------------------|
--------------------------|--------------------------|
--8--8--8--0--7--7--7--0--|--5--5--5--0--7--7--7--0--|


  E  E  E  E  E  E  E  E     E  E  E  E  E  E  E  E
--------------------------|--------------------------|
--------------------------|--------------------------|
--------------------------|--------------------------|
--------------------------|--------------------------|
--------------------------|--------------------------|
--8--8--8--0--7--7--7--0--|--5--5--5--0--7--7--7--0--|


  E  E  E  E  E  E  E  E     E  E  E  E  E  E  E  E
--------------------------|--------------------------|
--------------------------|--------------------------|
--------------------------|--------------------------|
--------------------------|--------------------------|
--------------------------|--------------------------|
--8--8--8--0--7--7--7--0--|--5--5--5--0--7--7--7--0--|


  E  E  E  E  E  E  E  E     E  E  E  E  E  E  E  E
--------------------------|--------------------------|
--------------------------|--------------------------|
--------------------------|--------------------------|
--------------------------|--------------------------|
--------------------------|--------------------------|
--8--8--8--0--7--7--7--0--|--5--5--5--0--7--7--7--0--|


  E  E  E  E  E  E  E  E     E  E  E  E  E  E  E  E
--------------------------|--------------------------|
--------------------------|--------------------------|
--------------------------|--------------------------|
--------------------------|--------------------------|
--------------------------|--------------------------|
--8--8--8--0--7--7--7--0--|--5--5--5--0--7--7--7--0--|


  E  E  E  E  E  E  E  E     S S S S  S  S  S S S S S S  S  S  S S
--------------------------|----------------------------------------|
--------------------------|----------------------------------------|
--------------------------|--7-7-7---10-10-10---9-9-9--------------|
--------------------------|-----------------------------10-10-10---|
--------------------------|----------------------------------------|
--8--8--8--0--7--7--7--0--|----------------------------------------|


  S S S S  S  S  S S S S S S  S  S  S S
----------------------------------------|
----------------------------------------|
--7-7-7---10-10-10---9-9-9--------------|
-----------------------------10-10-10---|
----------------------------------------|
----------------------------------------|


  S S S S  S  S  S S S S S S  S  S  S S
----------------------------------------|
----------------------------------------|
--7-7-7---10-10-10---9-9-9--------------|
-----------------------------10-10-10---|
----------------------------------------|
----------------------------------------|


  S S S S  S  S  S S S S S S  S  S  S S
----------------------------------------|
----------------------------------------|
--7-7-7---10-10-10---9-9-9--------------|
-----------------------------10-10-10---|
----------------------------------------|
----------------------------------------|


  S S S S  S  S  S S S S S S  S  S  S S
----------------------------------------|
----------------------------------------|
--7-7-7---10-10-10---9-9-9--------------|
-----------------------------10-10-10---|
----------------------------------------|
----------------------------------------|


  S S S S  S  S  S S S S S S  S  S  S S
----------------------------------------|
----------------------------------------|
--7-7-7---10-10-10---9-9-9--------------|
-----------------------------10-10-10---|
----------------------------------------|
----------------------------------------|


  S S S S  S  S  S S S S S S  S  S  S S
----------------------------------------|
----------------------------------------|
--7-7-7---10-10-10---9-9-9--------------|
-----------------------------10-10-10---|
----------------------------------------|
----------------------------------------|


  S S S S  S  S  S S S S S S  S  S  S S
----------------------------------------|
----------------------------------------|
--7-7-7---10-10-10---9-9-9--------------|
-----------------------------10-10-10---|
----------------------------------------|
----------------------------------------|


  S S S S  S  S  S S S S S S  S  S  S S
----------------------------------------|
----------------------------------------|
--7-7-7---10-10-10---9-9-9--------------|
-----------------------------10-10-10---|
----------------------------------------|
----------------------------------------|


  S S S S  S  S  S S S S S S  S  S  S S
----------------------------------------|
----------------------------------------|
--7-7-7---10-10-10---9-9-9--------------|
-----------------------------10-10-10---|
----------------------------------------|
----------------------------------------|


  S S S S  S  S  S S S S S S  S  S  S S
----------------------------------------|
----------------------------------------|
--7-7-7---10-10-10---9-9-9--------------|
-----------------------------10-10-10---|
----------------------------------------|
----------------------------------------|


  S S S S  S  S  S S S S S S  S  S  S S
----------------------------------------|
----------------------------------------|
--7-7-7---10-10-10---9-9-9--------------|
-----------------------------10-10-10---|
----------------------------------------|
----------------------------------------|


  S S S S  S  S  S S S S S S  S  S  S S
----------------------------------------|
----------------------------------------|
--7-7-7---10-10-10---9-9-9--------------|
-----------------------------10-10-10---|
----------------------------------------|
----------------------------------------|


  S S S S  S  S  S S S S S S  S  S  S S
----------------------------------------|
----------------------------------------|
--7-7-7---10-10-10---9-9-9--------------|
-----------------------------10-10-10---|
----------------------------------------|
----------------------------------------|


  S S S S  S  S  S S S S S S  S  S  S S     Q    Q    Q    Q
----------------------------------------|-----------------------|
----------------------------------------|-----------------------|
--7-7-7---10-10-10---9-9-9--------------|-----------------------|
-----------------------------10-10-10---|--10----7----8----5----|
----------------------------------------|--10----7----8----5----|
----------------------------------------|--10----7----8----5----|


                                               PM PM PM PM PM PM PM
  W                   H.           Q        E  E  E  E  E  E  E  E
-------------------|---------------------|--------------------------|
-------------------|---------------------|--------------------------|
-------------------|---------------------|--------------------------|
--0----------------|--L------------------|--------------------------|
--0----------------|--L------------7\----|--0--0--0--0--0--0--0--0--|
--0----------------|--L------------7\----|--0--0--0--0--0--0--0--0--|


  PM PM PM                                        PM PM PM PM PM PM PM
  E  E  E  S S S S S S Q        E  E  E  E     E  E  E  E  E  E  E  E
-----------------------------|--------------|--------------------------|
-----------------------------|--------------|--------------------------|
-----------------------------|--------------|--------------------------|
-----------------------------|--------------|--------------------------|
--0--0--0--------------------|-----1-----3--|--0--0--0--0--0--0--0--0--|
--0--0--0--1-1-1-1-0-0-4~----|--1-----3-----|--0--0--0--0--0--0--0--0--|


  PM PM PM                                        PM PM PM PM PM PM PM
  E  E  E  S S S S S S Q        E  E  E  E     E  E  E  E  E  E  E  E
-----------------------------|--------------|--------------------------|
-----------------------------|--------------|--------------------------|
-----------------------------|--------------|--------------------------|
-----------------------------|--------------|--------------------------|
--0--0--0--------------------|-----4-----3--|--0--0--0--0--0--0--0--0--|
--0--0--0--1-1-1-1-0-0-4~----|--4-----3-----|--0--0--0--0--0--0--0--0--|


  PM PM PM                                        PM PM PM PM PM PM PM
  E  E  E  S S S S S S Q        E  E  E  E     E  E  E  E  E  E  E  E
-----------------------------|--------------|--------------------------|
-----------------------------|--------------|--------------------------|
-----------------------------|--------------|--------------------------|
-----------------------------|--------------|--------------------------|
--0--0--0--------------------|-----1-----3--|--0--0--0--0--0--0--0--0--|
--0--0--0--1-1-1-1-0-0-4~----|--1-----3-----|--0--0--0--0--0--0--0--0--|


  PM PM PM
  E  E  E  S S S S S S Q        E  E  E  E  E  E  E  E
-----------------------------|--------------------------|
-----------------------------|--------------------------|
-----------------------------|--------------------------|
-----------------------------|--------------------------|
--0--0--0--------------------|-----4-----3-----1-----3--|
--0--0--0--1-1-1-1-0-0-4~----|--4-----3-----1-----3-----|


     PM PM PM PM PM PM PM    PM PM PM
  E  E  E  E  E  E  E  E     E  E  E  S S S S S S Q        E  E  E  E
--------------------------|-----------------------------|--------------|
--------------------------|-----------------------------|--------------|
--------------------------|-----------------------------|--------------|
--------------------------|-----------------------------|--------------|
--0--0--0--0--0--0--0--0--|--0--0--0--------------------|-----1-----3--|
--0--0--0--0--0--0--0--0--|--0--0--0--1-1-1-1-0-0-4~----|--1-----3-----|


     PM PM PM PM PM PM PM    PM PM PM
  E  E  E  E  E  E  E  E     E  E  E  S S S S S S Q        E  E  E  E
--------------------------|-----------------------------|--------------|
--------------------------|-----------------------------|--------------|
--------------------------|-----------------------------|--------------|
--------------------------|-----------------------------|--------------|
--0--0--0--0--0--0--0--0--|--0--0--0--------------------|-----4-----3--|
--0--0--0--0--0--0--0--0--|--0--0--0--1-1-1-1-0-0-4~----|--4-----3-----|


     PM PM PM PM PM PM PM    PM PM PM
  E  E  E  E  E  E  E  E     E  E  E  S S S S S S Q        E  E  E  E
--------------------------|-----------------------------|--------------|
--------------------------|-----------------------------|--------------|
--------------------------|-----------------------------|--------------|
--------------------------|-----------------------------|--------------|
--0--0--0--0--0--0--0--0--|--0--0--0--------------------|-----1-----3--|
--0--0--0--0--0--0--0--0--|--0--0--0--1-1-1-1-0-0-4~----|--1-----3-----|


     PM PM PM PM PM PM PM    PM PM PM
  E  E  E  E  E  E  E  E     E  E  E  S S S S S S Q
--------------------------|-----------------------------|
--------------------------|-----------------------------|
--------------------------|-----------------------------|
--------------------------|-----------------------------|
--0--0--0--0--0--0--0--0--|--0--0--0--------------------|
--0--0--0--0--0--0--0--0--|--0--0--0--1-1-1-1-0-0-4~----|


  E  E  E  E  E  E  E  E     E  E  E  E  E  E  E  E
--------------------------|--------------------------|
--------------------------|--------------------------|
--------------------------|--------------------------|
--------------------------|--------------------------|
-----4-----3-----1-----3--|--0--0--0--0--0--0--0--0--|
--4-----3-----1-----3-----|--0--0--0--0--0--0--0--0--|


  E  E  E  S S S S S S Q        E  E  E  E     E  E  E  E  E  E  E  E
-----------------------------|--------------|--------------------------|
-----------------------------|--------------|--------------------------|
-----------------------------|--------------|--------------------------|
-----------------------------|--------------|--------------------------|
--0--0--0--------------------|-----1-----3--|--0--0--0--0--0--0--0--0--|
--0--0--0--1-1-1-1-0-0-4~----|--1-----3-----|--0--0--0--0--0--0--0--0--|


  E  E  E  S S S S S S Q        E  E  E  E     E  E  E  E  E  E  E  E
-----------------------------|--------------|--------------------------|
-----------------------------|--------------|--------------------------|
-----------------------------|--------------|--------------------------|
-----------------------------|--------------|--------------------------|
--0--0--0--------------------|-----4-----3--|--0--0--0--0--0--0--0--0--|
--0--0--0--1-1-1-1-0-0-4~----|--4-----3-----|--0--0--0--0--0--0--0--0--|


  E  E  E  S S S S S S Q        E  E  E  E     E  E  E  E  E  E  E  E
-----------------------------|--------------|--------------------------|
-----------------------------|--------------|--------------------------|
-----------------------------|--------------|--------------------------|
-----------------------------|--------------|--------------------------|
--0--0--0--------------------|-----1-----3--|--0--0--0--0--0--0--0--0--|
--0--0--0--1-1-1-1-0-0-4~----|--1-----3-----|--0--0--0--0--0--0--0--0--|


  E  E  E  S S S S S S Q        E  E  E  E  E  E  E  E
-----------------------------|--------------------------|
-----------------------------|--------------------------|
-----------------------------|--------------------------|
-----------------------------|--------------------------|
--0--0--0--------------------|-----4-----3-----1-----3--|
--0--0--0--1-1-1-1-0-0-4~----|--4-----3-----1-----3-----|


  E  E  E  E  E  E  E  E     E  E  E  E  E  E  E  E
--------------------------|--------------------------|
--------------------------|--------------------------|
--------------------------|--------------------------|
--7--7--7--7--7--7--7--7--|--7--7--7--7--7--7--7--7--|
--------------------------|--------------------------|
--7--7--7--7--7--7--7--7--|--7--7--7--7--7--7--7--7--|


  E  E  E  E  E  E  E  E      E   E   E   E   E   E   E   E
--------------------------|----------------------------------|
--------------------------|----------------------------------|
--------------------------|----------------------------------|
--7--7--7--7--7--7--7--7--|--10--10--10--10--10--10--10--10--|
--------------------------|----------------------------------|
--7--7--7--7--7--7--7--7--|--10--10--10--10--10--10--10--10--|


  E  E  E  E  E  E  E  E     E  E  E  E  E  E  E  E
--------------------------|--------------------------|
--------------------------|--------------------------|
--------------------------|--------------------------|
--7--7--7--7--7--7--7--7--|--7--7--7--7--7--7--7--7--|
--------------------------|--------------------------|
--7--7--7--7--7--7--7--7--|--7--7--7--7--7--7--7--7--|


  E  E  E  E  E  E  E  E      E   E   E   E   E   E   E  E
--------------------------|---------------------------------|
--------------------------|---------------------------------|
--------------------------|---------------------------------|
--7--7--7--7--7--7--7--7--|--10--10--10--10--10--10--10-----|
--------------------------|------------------------------9--|
--7--7--7--7--7--7--7--7--|--10--10--10--10--10--10--10-----|


  E   E  E   E  E  E  E  E       E  E   E  E   E   E    Q
-----------------------------|--------------------------------|
-----------------------------|--------------------------------|
--9--------------------------|------9---------12--(x)--10~----|
-----10--9--10--5--7--3--5s--|--10-----10--9------------------|
-----------------------------|--------------------------------|
-----------------------------|--------------------------------|


  E   E  E   E  E  E  E  E       E  E   E  E   E   E    Q
-----------------------------|-------------------------------|
-----------------------------|-------------------------12----|
--9--------------------------|------9---------12--(x)--------|
-----10--9--10--5--7--3--5s--|--10-----10--9-----------------|
-----------------------------|-------------------------------|
-----------------------------|-------------------------------|


  E   E  E   E  E  E  E  E       E  E   E  E   E   E    Q
-----------------------------|--------------------------------|
-----------------------------|--------------------------------|
--9--------------------------|------9---------12--(x)--10~----|
-----10--9--10--5--7--3--5s--|--10-----10--9------------------|
-----------------------------|--------------------------------|
-----------------------------|--------------------------------|


  E   E  E   E  E  E  E  E       E  E   E  E   E   E    Q
-----------------------------|-------------------------------|
-----------------------------|-------------------------12----|
--9--------------------------|------9---------12--(x)--------|
-----10--9--10--5--7--3--5s--|--10-----10--9-----------------|
-----------------------------|-------------------------------|
-----------------------------|-------------------------------|


  S S  E  E  E  S S  E  E  E     S S  E  E  E   S  S   E  E  E
------------------------------|---------------------------------|
------------------------------|---------------------------------|
--0-0h-2--L--L--4-4h-5--L--L--|--7-7h-9--L--L--12-12h-14--L--L--|
------------------------------|---------------------------------|
------------------------------|---------------------------------|
------------------------------|---------------------------------|


  E  E  E  E  E  E  E  E      E   E   E   E   E   E   E   E
--------------------------|----------------------------------|
--------------------------|----------------------------------|
--------------------------|----------------------------------|
--------------------------|----------------------------------|
--3--3--3--3--3--3--3--3--|--10--10--10--10--10--10--10--10--|
--3--3--3--3--3--3--3--3--|--10--10--10--10--10--10--10--10--|


  S S  E  E  E  S S  E  E  E     S S  E  E  E   S  S   E  E  E
------------------------------|---------------------------------|
------------------------------|---------------------------------|
--0-0h-2--L--L--4-4h-5--L--L--|--7-7h-9--L--L--12-12h-14--L--L--|
------------------------------|---------------------------------|
------------------------------|---------------------------------|
------------------------------|---------------------------------|


              PM PM PM PM    PM PM PM PM PM PM PM PM
  E  E  E  E  E  E  E  E     E  E  E  E  E  E  E  E
--------------------------|--------------------------|
--------------------------|--------------------------|
--------------------------|--------------------------|
--------------------------|--------------------------|
--3--3--3--3--3--3--3--3--|--0--0--0--0--0--0--0--0--|
--3--3--3--3--3--3--3--3--|--0--0--0--0--0--0--0--0--|


  PM    PM    PM    PM       PM    PM    PM    PM
  E  E  E  E  E  E  E  E     E  E  E  E  E  E  E  E
--------------------------|--------------------------|
-----------8--------------|-----------------8--------|
-----9-----------9-----9--|-----9-----9-----------9--|
--------------------------|--------------------------|
--7-----7-----7-----7-----|--7-----7-----7-----7-----|
--------------------------|--------------------------|


   E   E   E   E   E   E   E   E      E   E   E   E   E   E   E   E
----------------------------------|----------------------------------|
----------------------------------|----------------------------------|
--12--12--12--12--12--12--12--12--|--17--17--17--17--17--17--17--17--|
----------------------------------|----------------------------------|
--10--10--10--10--10--10--10--10--|--15--15--15--15--15--15--15--15--|
----------------------------------|----------------------------------|


  PM    PM    PM    PM       PM    PM    PM    PM
  E  E  E  E  E  E  E  E     E  E  E  E  E  E  E  E
--------------------------|--------------------------|
-----------8--------------|-----------------8--------|
-----9-----------9-----9--|-----9-----9-----------9--|
--------------------------|--------------------------|
--7-----7-----7-----7-----|--7-----7-----7-----7-----|
--------------------------|--------------------------|


   E   E   E   E   E   E   E   E      E   E   E   E   E   E   E   E
----------------------------------|----------------------------------|
----------------------------------|----------------------------------|
--12--12--12--12--12--12--12--12--|--17--17--17--17--17--17--17--17--|
----------------------------------|----------------------------------|
--10--10--10--10--10--10--10--10--|--15--15--15--15--15--15--15--15--|
----------------------------------|----------------------------------|


  PM    PM    PM    PM       PM    PM    PM    PM
  E  E  E  E  E  E  E  E     E  E  E  E  E  E  E  E
--------------------------|--------------------------|
-----------8--------------|-----------------8--------|
-----9-----------9-----9--|-----9-----9-----------9--|
--------------------------|--------------------------|
--7-----7-----7-----7-----|--7-----7-----7-----7-----|
--------------------------|--------------------------|


   E   E   E   E   E   E   E   E      E   E   E   E   E   E   E   E
----------------------------------|----------------------------------|
----------------------------------|----------------------------------|
--12--12--12--12--12--12--12--12--|--17--17--17--17--17--17--17--17--|
----------------------------------|----------------------------------|
--10--10--10--10--10--10--10--10--|--15--15--15--15--15--15--15--15--|
----------------------------------|----------------------------------|


  PM    PM    PM    PM       PM    PM    PM    PM
  E  E  E  E  E  E  E  E     E  E  E  E  E  E  E  E
--------------------------|--------------------------|
-----------8--------------|-----------------8--------|
-----9-----------9-----9--|-----9-----9-----------9--|
--------------------------|--------------------------|
--7-----7-----7-----7-----|--7-----7-----7-----7-----|
--------------------------|--------------------------|


   E   E   E   E   E   E   E   E      Q    H.
----------------------------------|---------------------||
----------------------------------|---------------------||
--12--12--12--12--12--12--12--12--|--17-----------------||
----------------------------------|---------------------||
--10--10--10--10--10--10--10--10--|--15-----------------||
----------------------------------|---------------------||




************************************************************************
************************************************************************
########################################################################




Harmony Guitar



D||-------|-------|-------|-------|-------|-------|-------|-------|-------|
A||-------|-------|-------|-------|-------|-------|-------|-------|-------|
F||-------|-------|-------|-------|-------|-------|-------|-------|-------|
C||-------|-------|-------|-------|-------|-------|-------|-------|-------|
G||-------|-------|-------|-------|-------|-------|-------|-------|-------|
C||-------|-------|-------|-------|-------|-------|-------|-------|-------|


-------|-------|-------|-------|-------|-------|-------|-------|-------|
-------|-------|-------|-------|-------|-------|-------|-------|-------|
-------|-------|-------|-------|-------|-------|-------|-------|-------|
-------|-------|-------|-------|-------|-------|-------|-------|-------|
-------|-------|-------|-------|-------|-------|-------|-------|-------|
-------|-------|-------|-------|-------|-------|-------|-------|-------|


   S  S  S S  S  S  S S  S  S  S S  S  S  S S
----------------------------------------------|
----------------------------------------------|
----------------------------------------------|
--19-19-19---22-22-22---21-21-21--------------|
-----------------------------------22-22-22---|
----------------------------------------------|


   S  S  S S  S  S  S S  S  S  S S  S  S  S S
----------------------------------------------|
----------------------------------------------|
----------------------------------------------|
--19-19-19---22-22-22---21-21-21--------------|
-----------------------------------22-22-22---|
----------------------------------------------|


   S  S  S S  S  S  S S  S  S  S S  S  S  S S
----------------------------------------------|
----------------------------------------------|
----------------------------------------------|
--19-19-19---22-22-22---21-21-21--------------|
-----------------------------------22-22-22---|
----------------------------------------------|


   S  S  S S  S  S  S S  S  S  S S  S  S  S S
----------------------------------------------|
----------------------------------------------|
----------------------------------------------|
--19-19-19---22-22-22---21-21-21--------------|
-----------------------------------22-22-22---|
----------------------------------------------|


   S  S  S S  S  S  S S  S  S  S S  S  S  S S
----------------------------------------------|
----------------------------------------------|
----------------------------------------------|
--19-19-19---22-22-22---21-21-21--------------|
-----------------------------------22-22-22---|
----------------------------------------------|


   S  S  S S  S  S  S S  S  S  S S  S  S  S S
----------------------------------------------|
----------------------------------------------|
----------------------------------------------|
--19-19-19---22-22-22---21-21-21--------------|
-----------------------------------22-22-22---|
----------------------------------------------|


   S  S  S S  S  S  S S  S  S  S S  S  S  S S
----------------------------------------------|----|-------|-------|-------|
----------------------------------------------|----|-------|-------|-------|
----------------------------------------------|----|-------|-------|-------|
--19-19-19---22-22-22---21-21-21--------------|----|-------|-------|-------|
-----------------------------------22-22-22---|----|-------|-------|-------|
----------------------------------------------|----|-------|-------|-------|


-------|-------|-------|-------|-------|-------|-------|-------|-------|-------|
-------|-------|-------|-------|-------|-------|-------|-------|-------|-------|
-------|-------|-------|-------|-------|-------|-------|-------|-------|-------|
-------|-------|-------|-------|-------|-------|-------|-------|-------|-------|
-------|-------|-------|-------|-------|-------|-------|-------|-------|-------|
-------|-------|-------|-------|-------|-------|-------|-------|-------|-------|


-------|-------|-------|-------|-------|-------|-------|-------|-------|-------|
-------|-------|-------|-------|-------|-------|-------|-------|-------|-------|
-------|-------|-------|-------|-------|-------|-------|-------|-------|-------|
-------|-------|-------|-------|-------|-------|-------|-------|-------|-------|
-------|-------|-------|-------|-------|-------|-------|-------|-------|-------|
-------|-------|-------|-------|-------|-------|-------|-------|-------|-------|


-------|-------|-------|-------|-------|-------|-------|-------|-------|-------|
-------|-------|-------|-------|-------|-------|-------|-------|-------|-------|
-------|-------|-------|-------|-------|-------|-------|-------|-------|-------|
-------|-------|-------|-------|-------|-------|-------|-------|-------|-------|
-------|-------|-------|-------|-------|-------|-------|-------|-------|-------|
-------|-------|-------|-------|-------|-------|-------|-------|-------|-------|


-------|-------|-------|-------|-------|-------|-------|-------|-------|-------|
-------|-------|-------|-------|-------|-------|-------|-------|-------|-------|
-------|-------|-------|-------|-------|-------|-------|-------|-------|-------|
-------|-------|-------|-------|-------|-------|-------|-------|-------|-------|
-------|-------|-------|-------|-------|-------|-------|-------|-------|-------|
-------|-------|-------|-------|-------|-------|-------|-------|-------|-------|


-------|-------|-------|-------|-------|-------|-------|-------|-------|-------|
-------|-------|-------|-------|-------|-------|-------|-------|-------|-------|
-------|-------|-------|-------|-------|-------|-------|-------|-------|-------|
-------|-------|-------|-------|-------|-------|-------|-------|-------|-------|
-------|-------|-------|-------|-------|-------|-------|-------|-------|-------|
-------|-------|-------|-------|-------|-------|-------|-------|-------|-------|


-------|-------|-------|-------|-------|-------|-------|-------|-------|-------|
-------|-------|-------|-------|-------|-------|-------|-------|-------|-------|
-------|-------|-------|-------|-------|-------|-------|-------|-------|-------|
-------|-------|-------|-------|-------|-------|-------|-------|-------|-------|
-------|-------|-------|-------|-------|-------|-------|-------|-------|-------|
-------|-------|-------|-------|-------|-------|-------|-------|-------|-------|


-------|-------|-------|-------|-------|-------|-------|-------|-------|-------|
-------|-------|-------|-------|-------|-------|-------|-------|-------|-------|
-------|-------|-------|-------|-------|-------|-------|-------|-------|-------|
-------|-------|-------|-------|-------|-------|-------|-------|-------|-------|
-------|-------|-------|-------|-------|-------|-------|-------|-------|-------|
-------|-------|-------|-------|-------|-------|-------|-------|-------|-------|


-------|-------|-------|-------|-------|-------|-------|-------|-------|-------|
-------|-------|-------|-------|-------|-------|-------|-------|-------|-------|
-------|-------|-------|-------|-------|-------|-------|-------|-------|-------|
-------|-------|-------|-------|-------|-------|-------|-------|-------|-------|
-------|-------|-------|-------|-------|-------|-------|-------|-------|-------|
-------|-------|-------|-------|-------|-------|-------|-------|-------|-------|


-------|-------|-------|-------|-------|
-------|-------|-------|-------|-------|
-------|-------|-------|-------|-------|
-------|-------|-------|-------|-------|
-------|-------|-------|-------|-------|
-------|-------|-------|-------|-------|


   S  S  S S  S  S  S S  S  S  S S  S  S  S S
----------------------------------------------|
----------------------------------------------|
----------------------------------------------|
--19-19-19---22-22-22---21-21-21--------------|
-----------------------------------22-22-22---|
----------------------------------------------|


   S  S  S S  S  S  S S  S  S  S S  S  S  S S
----------------------------------------------|
----------------------------------------------|
----------------------------------------------|
--19-19-19---22-22-22---21-21-21--------------|
-----------------------------------22-22-22---|
----------------------------------------------|


   S  S  S S  S  S  S S  S  S  S S  S  S  S S
----------------------------------------------|
----------------------------------------------|
----------------------------------------------|
--19-19-19---22-22-22---21-21-21--------------|
-----------------------------------22-22-22---|
----------------------------------------------|


   S  S  S S  S  S  S S  S  S  S S  S  S  S S
----------------------------------------------|
----------------------------------------------|
----------------------------------------------|
--19-19-19---22-22-22---21-21-21--------------|
-----------------------------------22-22-22---|
----------------------------------------------|


   S  S  S S  S  S  S S  S  S  S S  S  S  S S
----------------------------------------------|
----------------------------------------------|
----------------------------------------------|
--19-19-19---22-22-22---21-21-21--------------|
-----------------------------------22-22-22---|
----------------------------------------------|


   S  S  S S  S  S  S S  S  S  S S  S  S  S S
----------------------------------------------|
----------------------------------------------|
----------------------------------------------|
--19-19-19---22-22-22---21-21-21--------------|
-----------------------------------22-22-22---|
----------------------------------------------|


   S  S  S S  S  S  S S  S  S  S S  S  S  S S
----------------------------------------------|----|-------|-------|-------|
----------------------------------------------|----|-------|-------|-------|
----------------------------------------------|----|-------|-------|-------|
--19-19-19---22-22-22---21-21-21--------------|----|-------|-------|-------|
-----------------------------------22-22-22---|----|-------|-------|-------|
----------------------------------------------|----|-------|-------|-------|


-------|-------|-------|-------|-------|-------|-------|-------|-------|-------|
-------|-------|-------|-------|-------|-------|-------|-------|-------|-------|
-------|-------|-------|-------|-------|-------|-------|-------|-------|-------|
-------|-------|-------|-------|-------|-------|-------|-------|-------|-------|
-------|-------|-------|-------|-------|-------|-------|-------|-------|-------|
-------|-------|-------|-------|-------|-------|-------|-------|-------|-------|


-------|-------|-------|-------|-------|-------|-------|-------|-------|-------|
-------|-------|-------|-------|-------|-------|-------|-------|-------|-------|
-------|-------|-------|-------|-------|-------|-------|-------|-------|-------|
-------|-------|-------|-------|-------|-------|-------|-------|-------|-------|
-------|-------|-------|-------|-------|-------|-------|-------|-------|-------|
-------|-------|-------|-------|-------|-------|-------|-------|-------|-------|


-------|-------|-------|-------|-------|-------|-------|-------|-------|-------|
-------|-------|-------|-------|-------|-------|-------|-------|-------|-------|
-------|-------|-------|-------|-------|-------|-------|-------|-------|-------|
-------|-------|-------|-------|-------|-------|-------|-------|-------|-------|
-------|-------|-------|-------|-------|-------|-------|-------|-------|-------|
-------|-------|-------|-------|-------|-------|-------|-------|-------|-------|


-------|-------|-------|-------|-------|-------|-------|-------|-------|-------|
-------|-------|-------|-------|-------|-------|-------|-------|-------|-------|
-------|-------|-------|-------|-------|-------|-------|-------|-------|-------|
-------|-------|-------|-------|-------|-------|-------|-------|-------|-------|
-------|-------|-------|-------|-------|-------|-------|-------|-------|-------|
-------|-------|-------|-------|-------|-------|-------|-------|-------|-------|


-------|-------|-------|-------|-------|-------|-------|-------|-------|-------|
-------|-------|-------|-------|-------|-------|-------|-------|-------|-------|
-------|-------|-------|-------|-------|-------|-------|-------|-------|-------|
-------|-------|-------|-------|-------|-------|-------|-------|-------|-------|
-------|-------|-------|-------|-------|-------|-------|-------|-------|-------|
-------|-------|-------|-------|-------|-------|-------|-------|-------|-------|


-------|-------|-------|-------|-------|-------|-------|-------|-------|-------|
-------|-------|-------|-------|-------|-------|-------|-------|-------|-------|
-------|-------|-------|-------|-------|-------|-------|-------|-------|-------|
-------|-------|-------|-------|-------|-------|-------|-------|-------|-------|
-------|-------|-------|-------|-------|-------|-------|-------|-------|-------|
-------|-------|-------|-------|-------|-------|-------|-------|-------|-------|


                   E   E   E  E   E   E   E   E
-------|-------|---------------------------------|-------|-------|-------|
-------|-------|---------------------------------|-------|-------|-------|
-------|-------|--------------9------------------|-------|-------|-------|
-------|-------|------10-------------10----------|-------|-------|-------|
-------|-------|-----------------------------10--|-------|-------|-------|
-------|-------|--10------10-----10------10------|-------|-------|-------|


   E   E   E  E   E   E   E   E      E   E   E  E   E   E   E   E
---------------------------------|---------------------------------|
---------------------------------|---------------------------------|
--------------9------------------|--------------9------------------|
------10-------------10----------|------10-------------10----------|
-----------------------------10--|-----------------------------10--|
--10------10-----10------10------|--10------10-----10------10------|


   E   E   E  E   E   E   E   E              E   E   E  E   E   E   E   E
---------------------------------|-------|---------------------------------|
---------------------------------|-------|---------------------------------|
--------------9------------------|-------|--------------9------------------|
------10-------------10----------|-------|------10-------------10----------|
-----------------------------10--|-------|-----------------------------10--|
--10------10-----10------10------|-------|--10------10-----10------10------|


   E   E   E  E   E   E   E   E      E   E   E  E   E   E   E   E
---------------------------------|---------------------------------|-------|
---------------------------------|---------------------------------|-------|
--------------9------------------|--------------9------------------|-------|
------10-------------10----------|------10-------------10----------|-------|
-----------------------------10--|-----------------------------10--|-------|
--10------10-----10------10------|--10------10-----10------10------|-------|


-------||
-------||
-------||
-------||
-------||
-------||




Duration Legend
---------------
W - whole
H - half
Q - quarter
E - 8th
S - 16th
T - 32nd
X - 64th
. - note dotted
|-n-|  - n-tuplets


Tablature Legend
----------------
L - tied note
x - dead note
g - grace note
(n) - ghost note
> - accentuded note
NH - natural harmonic
AH - artificial harmonic
TH - tapped harmonic
SH - semi harmonic
PH - pitch harmonic
h - hammer on
p - pull off
b - bend
br - bendRelease
pb - preBend
pbr - preBendRelease
brb - bendReleaseBend
\n/ - tremolo bar dip
\n - tremolo bar dive
-/n - tremolo bar Release up
/n\ - tremolo bar inverted dip
/n - tremolo bar return
-\n - tremolo bar Release down
S - shift slide
s - legato slide
/ -  slide into from below or out of upwards
\ -  slide into from above or out of downwards
~ - vibrato
W - wide vibrato
tr - trill
TP - tremolo picking
T - tapping
S - slap
P - pop
< - fade in
^ - brush up
v - brush down
Tap to rate this tab
 
# A B C D E F G H I J K L M N O P Q R S T U V W X Y Z