Song name
# A B C D E F G H I J K L M N O P Q R S T U V W X Y Z

Devildriver - The Mountain tab

Devildriver: The Mountain
I'm 100% sure this is how the song is played, here's a link to my cover of the song.
http://www.youtube.com/watch?v=0L6Y6mPuB4s

h=Hammer on
*=Palm mute
t=Tremblo or alternite picking
p=Pull off
s=Slide


Intro
C#|--------------------------------------------------|
G#|--------------------------------------------------|
E |--------------------------------------------------|
B |--------------------------------------------------|
F#|---5h8--4h7--5h8--4h7-5h8-4h7---------------------|
B |--------------------------------------------------|
Just play that until it comes up to part 2 of the intro
Which is this

Intro 2
C#|--------------------------------------------------|
G#|--------------------------------------------------|
E |--------------------------------------------------|
B |--------------------------------------------------|
F#|---5h8--4h7--5h8--4h7-5h8-4h7---------------------|
B |---5h8--4h7--5h8--4h7-5h8-4h7---------------------|
Listen to the song, you will get what I mean

Verse
C#|-----------------------------------------------------|
G#|-----------------------------------------------------|
E |-----------------------------------------------------|
B |--00--00--33--00--00--33--00--00---------------------|
F#|--00--00--33--00--00--33--00--00--0------------------|
B |--00--00--33--00--00--33--00--00--0--4p0--5p0--6p0--0|
            **          **        

Verse Breakdown 1
C#|--------------------------------------------------|
G#|--------------------------------------------------|
E |---888-777-101010-888-11-11-11--------------------|
B |--------------------------------------------------|x4
F#|--------------------------------------------------|
B |--------------------------------------------------|
The firs two times is palm muted

Verse 2
C#|--------------------------------------------------|
G#|--------------------------------------------------|
E |--------------------------------------------------|
B |---4--3--6--5--4--5-------------------------------|x4
F#|---4--3--6--5--4--5-------------------------------|
B |---4--3--6--5--4--5-------------------------------|

Verse Breakdown 2
C#|--------------------------------------------------|
G#|--------------------------------------------------|
E |--------------------------------------------------|
B |--------------------------------------------------|x4
F#|--------------------------------------------------|
B#|---14t--13t--16t--14t--17t------------------------|


Breakdown 1
C#|--------------------------------------------------|
G#|--------------------------------------------------|
E |--------------------------------------------------|
B |--------------------------------------------------|
F#|--3s5-5-6---3s5-5-6-------------------------------|
B |--------------------------------------------------|
Play this until it comes to this

C#|--------------------------------------------------|
G#|--------------------------------------------------|
E |--------------------------------------------------|
B |---5--4--3----------------------------------------|
F# ---5--4--3----------------------------------------|
B |---5--4--3----------------------------------------|
     *  *  *
Second time through, lead player plays this
C#|--------------------------------------------------|
G#|--------------------------------------------------|
E |--------------------------------------------------|
B |---3a5-5-6---3s5-5-6------------------------------|
F#|--------------------------------------------------|
B |--------------------------------------------------|
Then at the end of it each time play this

C#|--------------------------------------------------|
G#|--------------------------------------------------|
E |--------------------------------------------------|
B |---5--4--3----------------------------------------|
F#|---5--4--3----------------------------------------|
B |---5--4--3----------------------------------------|
     *  *  *

Whole song breakdown
C#|--------------|
G#|--------------|
E |--------------|
B |---5--3--3--2-|
F#|---5--3--3--2-|
B |---5--3--3--2-
        *  *
At the end, this is played
C#|--------------------------------------------------|
G#|--------------------------------------------------|
E |--------------------------------------------------|
B |---5--4--3----------------------------------------|
F#|---5--4--3----------------------------------------|
B |---5--4--3----------------------------------------|
     *  *  *
Then play the intro, then the song is done, I know its not very clear, but listen 
to the song and you will figure it out =]
Tap to rate this tab
# A B C D E F G H I J K L M N O P Q R S T U V W X Y Z