Song name
# A B C D E F G H I J K L M N O P Q R S T U V W X Y Z

Devildriver - Hold Back The Day tab

Intro

|-------------------------------------------------|
|-------------------------------------------------|
|-------0--3--------0--3--------7-----------6--6--|
|-------------0--------------------8--------------| 
|----0-----------0-----------8-----------7--------|
|-0-----------------------8-----------7-----------|

|--------------------------------------|
|--------------------------------------|
|--------------------------------------|
|--------------------------------------|
|--------------------------------------|
|-0-3-0-3-0-12\-0-3-0-8-0-8-0-12\-0-7--|

|---------------------------------------|
|---------------------------------------|
|---------------------------------------|
|-0-3-0-3-0-12\-0-3-0-8-0-8-0-12\-0-9b--|
|-0-3-0-3-0-12\-0-3-0-8-0-8-0-12\-0-----|
|-0-3-0-3-0-12\-0-3-0-8-0-8-0-12\-0-----|

Verse
                                                  Tail end
|-----------------------------------------------|-----------------------|
|-----------------------------------------------|-----------------------|
|-----------------------------------------------|-----------------------|
|-----------------------------------------------|-----------------------|
|-----------------------------------------------|-1创-----3创-1创-------|
|-1-0-0-0-000000-1-0-0-0-000-000-1-0-0-0-000000-|---1创-3创-----1创-3创-|
    . . . ......   . . . ... ...   . . . ......   . .   . .   . .   .

|----------------------------------------------------|-------------------------|
|----------------------------------------------------|-------------------------|
|----------------------------------------------------|-------------------------|
|----------------------------------------------------|-------------------------|
|---------1p0-----------3p0-----------5p0------------|-1创-----3创-1创---------|
|-1-0-0-0----3p0-1-0-0-0---3p0-1-0-0-0---3p0-1-0-0-0-|---1创-3创------1创-3创--|
    . . .          . . .         . . .         . . .   . .   . .   .  .   .

 Pre-chorus

|-10-13-10-13-10-13-10-13----13--13---12-12b--|
|-------------------------10---10---10--------|
|---------------------------------------------|
|---------------------------------------------| Gtr 1
|---------------------------------------------|
|---------------------------------------------|

|-----------------------------------------------------------------|
|-----------------------------------------------------------------|
|-----------------------------------------------------------------|
|------------------------------------------------------------10b--| Gtr 2
|-----------------------------------------------------------------|
|-0-0-0-0-0-0-0-0-0-0-0-8-8-8-8-8-8-8-8-8-7-7-7-7-7-7-7-7-7-------|
  . . . . . . . . . . . . . . . . . . . . . . . . . . . . .

Chorus

                                                     Second tail end
|----------------------------------------------------------|----------|
|----------------------------------------------------------|----------|
|----------------------------------------------------------|----------|
|----------------------------------------------------------|12创-11创-| Gtr 1
|-7创-8创-12创-11创-7创-8创-15创-14创-121212-13-101010-12-7|----------|
|-5创-5创-8创--7创--5创-5创-12创-12创----------------------|-8创--7创-|

|------------------------------------------------------------------|
|------------------------------------------------------------------|
|------------------------------------------------------------------|
|------------------------------------------------------------------| Gtr 2
|-555555555558888888888877777777777555555555555121212121212121212--|
|------------------------------------------------------------------|

|---------------------------------------------------------------------|
|---------------------------------------------------------------------|
|---------------------------------------------------------------------|
|---------------------------------------------------------------------|
|-13-12-9-11-9-555555558888888877777777555555551212121212121212--6-5--|
|----------------------------------------------------------------6-5--|

Midsection

|--------------------------------------------------------|
|--------------------------------------------------------|
|--------------------------------------------------------|
|--------------------------------------------------------|
|--------------------------------------------------------|
|-1-0-0000000000-1-0-0000000000-1-0-00000000000-1-0-12/--|
    . ..........   . ..........   . ...........   .

|-----------------------------------------|
|-----------------------------------------|
|-----------------------------------------|
|-----------------------------------------|
|-5/7-3-3-5/7-3-3-5/7-3-3-5/7-5-5-5/7-2-2-|
|-5/7-3-3-5/7-3-3-5/7-3-3-5/7-5-5-5/7-2-2-|

|------------------------------------------------------------------|
|------------------------------------------------------------------|
|------------------------------------------------------------------|
|------------------------------------------------------------------|
|-5/7-3----------5/7-3-----------5/7-5------------5/7-2------------|
|-5/7-3-00000000-5/7-3-000000000-5/7-5-0000000000-5/7-2-0000000000-|
        ........       .........       ..........       ..........

P-pull off
创-16th notes
/-slide down
\-slide up
. palm-mute
b-bend
Tap to rate this tab
# A B C D E F G H I J K L M N O P Q R S T U V W X Y Z