Song name
# A B C D E F G H I J K L M N O P Q R S T U V W X Y Z

Devildriver - Not All Who Wander Are Lost tab

      Not All Who Wander Are Lost - Devildriver



Tuning: Dropped C

C G C F A D


             E   E   E   E  E  E  E  E      E   E  E  E  E  E  E  E   
D||-------|-----------------------------|----------------------------|
A||-------|-----------------------------|----------------------------|
F||-------|-----------------------------|----------------------------|
C||-------|-----------------------------|----------------------------|
G||-------|-----------------------------|----------------------------|
C||-------|--0h--5h--7h--8--0--0--0--0--|--13s--8--0--8--0--0--0--0--|


                                                 PM PM PM  
  E   E   E   E  E  E  E  E      E   E  E  E  E  E  E  E   
-----------------------------|----------------------------|
-----------------------------|----------------------------|
-----------------------------|----------------------------|
-----------------------------|----------------------------|
-----------------------------|-------------------0--0--0--|
--0h--5h--7h--8--0--0--0--0--|--13s--8--0--8--0--0--0--0--|


  E   E   E   E  E  E  E  E      E   E  E  E  E  E  E  E   
-----------------------------|----------------------------|
-----------------------------|----------------------------|
-----------------------------|----------------------------|
-----------------------------|----------------------------|
-----------------------------|----------------------------|
--0h--5h--7h--8--0--0--0--0--|--13s--8--0--8--0--0--0--0--|


   E   E  E  E  E  E  E  E      E   E  E  E  E  E  E  E   
----------------------------|----------------------------|
----------------------------|----------------------------|
----------------------------|----------------------------|
----------------------------|----------------------------|
----------------------------|----------------------------|
--13s--8--8--8--8--8--8--8--|--12s--7--7--7--7--7--7--7--|


  E   E   E   E  E  E  E  E      E   E  E  E  E  E  E  E   
-----------------------------|----------------------------|
-----------------------------|----------------------------|
-----------------------------|----------------------------|
-----------------------------|----------------------------|
-----------------------------|----------------------------|
--0h--5h--7h--8--0--0--0--0--|--13s--8--0--8--0--0--0--0--|


                                                 PM PM PM  
  E   E   E   E  E  E  E  E      E   E  E  E  E  E  E  E   
-----------------------------|----------------------------|
-----------------------------|----------------------------|
-----------------------------|----------------------------|
-----------------------------|----------------------------|
-----------------------------|-------------------0--0--0--|
--0h--5h--7h--8--0--0--0--0--|--13s--8--0--8--0--0--0--0--|


  E   E   E   E  E  E  E  E      E   E  E  E  E  E  E  E   
-----------------------------|----------------------------|
-----------------------------|----------------------------|
-----------------------------|----------------------------|
-----------------------------|----------------------------|
-----------------------------|----------------------------|
--0h--5h--7h--8--0--0--0--0--|--13s--8--0--8--0--0--0--0--|


   E   E  E  E  E  E  E  E      E   E  E  E  E  E  E  E   
----------------------------|----------------------------|
----------------------------|----------------------------|
----------------------------|----------------------------|
----------------------------|----------------------------|
----------------------------|----------------------------|
--13s--8--8--8--8--8--8--8--|--12s--7--7--7--7--7--7--7--|


  E  E  E  E  E  E  E  E     E  E  E  E  E  E  E  E   
--------------------------|--------------------------|
--------------------------|--------------------------|
--------------------------|--------------------------|
--7--7--3--3--3--3--3--3--|--6--6--2--2--2--2--2--2--|
--7--7--3--3--3--3--3--3--|--6--6--2--2--2--2--2--2--|
--7--7--3--3--3--3--3--3--|--6--6--2--2--2--2--2--2--|


              PM    PM                   PM    PM     
  E  E  E  E  E  E  E  E     E  E  E  E  E  E  E  E   
--------------------------|--------------------------|
--------------------------|--------------------------|
--------------------------|--------------------------|
--------------------------|--------------------------|
--0--5--7--8--------------|--------------------------|
--------------0--0--0--0--|--6--6--6--5--0--0--0--0--|


                PM    PM                   PM    PM     
   E   E  E  E  E  E  E  E     E  E  E  E  E  E  E  E   
----------------------------|--------------------------|
----------------------------|--------------------------|
----------------------------|--------------------------|
----------------------------|--------------------------|
--13s--5--7--8--------------|--------------------------|
----------------0--0--0--0--|--3--3--3--6--0--0--0--0--|


              PM    PM                   PM    PM     
  E  E  E  E  E  E  E  E     E  E  E  E  E  E  E  E   
--------------------------|--------------------------|
--------------------------|--------------------------|
--------------------------|--------------------------|
--------------------------|--------------------------|
--0--5--7--8--------------|--------------------------|
--------------0--0--0--0--|--6--6--6--5--0--0--0--0--|


   E   E  E  E  E  E  E  E      E   E  E  E  E  E  E  E   
----------------------------|----------------------------|
----------------------------|----------------------------|
----------------------------|----------------------------|
----------------------------|----------------------------|
----------------------------|----------------------------|
--13s--8--8--8--8--8--8--8--|--12s--7--7--7--7--7--7--7--|


              PM    PM                   PM    PM     
  E  E  E  E  E  E  E  E     E  E  E  E  E  E  E  E   
--------------------------|--------------------------|
--------------------------|--------------------------|
--------------------------|--------------------------|
--------------------------|--------------------------|
--0--5--7--8--------------|--------------------------|
--------------0--0--0--0--|--6--6--6--5--0--0--0--0--|


                PM    PM                   PM    PM     
   E   E  E  E  E  E  E  E     E  E  E  E  E  E  E  E   
----------------------------|--------------------------|
----------------------------|--------------------------|
----------------------------|--------------------------|
----------------------------|--------------------------|
--13s--5--7--8--------------|--------------------------|
----------------0--0--0--0--|--3--3--3--6--0--0--0--0--|


              PM    PM                   PM    PM     
  E  E  E  E  E  E  E  E     E  E  E  E  E  E  E  E   
--------------------------|--------------------------|
--------------------------|--------------------------|
--------------------------|--------------------------|
--------------------------|--------------------------|
--0--5--7--8--------------|--------------------------|
--------------0--0--0--0--|--6--6--6--5--0--0--0--0--|


   E   E  E  E  E  E  E  E      E   E  E  E  E  E  E  E   
----------------------------|----------------------------|
----------------------------|----------------------------|
----------------------------|----------------------------|
----------------------------|----------------------------|
----------------------------|----------------------------|
--13s--8--8--8--8--8--8--8--|--12s--7--7--7--7--7--7--7--|


  E  E  E  E  E  E  E  E     E  E  E  E  E  E  E  E   
--------------------------|--------------------------|
--------------------------|--------------------------|
--------------------------|--------------------------|
--7--7--3--3--3--3--3--3--|--6--6--2--2--2--2--2--2--|
--7--7--3--3--3--3--3--3--|--6--6--2--2--2--2--2--2--|
--7--7--3--3--3--3--3--3--|--6--6--2--2--2--2--2--2--|


              PM    PM PM    PM PM PM    PM    PM     
  E  E  E  E  E  E  E  E     E  E  E  E  E  E  E  E   
--------------------------|--------------------------|
--------------------------|--------------------------|
--------------------------|--------------------------|
--------------------------|--------------------------|
--0--5--7--8--------------|--------------------------|
--------------0--0--0--0--|--6--6--6--5--0--0--0--0--|


                PM    PM PM    PM PM PM    PM    PM PM  
   E   E  E  E  E  E  E  E     E  E  E  E  E  E  E  E   
----------------------------|--------------------------|
----------------------------|--------------------------|
----------------------------|--------------------------|
----------------------------|--------------------------|
--13s--5--7--8--------------|--------------------------|
----------------0--0--0--0--|--3--3--3--6--0--0--0--0--|


              PM    PM PM    PM PM PM    PM    PM     
  E  E  E  E  E  E  E  E     E  E  E  E  E  E  E  E   
--------------------------|--------------------------|
--------------------------|--------------------------|
--------------------------|--------------------------|
--------------------------|--------------------------|
--0--5--7--8--------------|--------------------------|
--------------0--0--0--0--|--6--6--6--5--0--0--0--0--|


   E   E  E  E  E  E  E  E      E   E  E  E  E  E  E  E   
----------------------------|----------------------------|
----------------------------|----------------------------|
----------------------------|----------------------------|
----------------------------|----------------------------|
----------------------------|----------------------------|
--13s--8--8--8--8--8--8--8--|--12s--7--7--7--7--7--7--7--|


              PM    PM PM    PM PM PM    PM    PM PM  
  E  E  E  E  E  E  E  E     E  E  E  E  E  E  E  E   
--------------------------|--------------------------|
--------------------------|--------------------------|
--------------------------|--------------------------|
--------------------------|--------------------------|
--0--5--7--8--------------|--------------------------|
--------------0--0--0--0--|--6--6--6--5--0--0--0--0--|


                PM    PM PM    PM PM PM    PM    PM PM  
   E   E  E  E  E  E  E  E     E  E  E  E  E  E  E  E   
----------------------------|--------------------------|
----------------------------|--------------------------|
----------------------------|--------------------------|
----------------------------|--------------------------|
--13s--5--7--8--------------|--------------------------|
----------------0--0--0--0--|--3--3--3--6--0--0--0--0--|


              PM    PM PM    PM PM PM    PM    PM     
  E  E  E  E  E  E  E  E     E  E  E  E  E  E  E  E   
--------------------------|--------------------------|
--------------------------|--------------------------|
--------------------------|--------------------------|
--------------------------|--------------------------|
--0--5--7--8--------------|--------------------------|
--------------0--0--0--0--|--6--6--6--5--0--0--0--0--|


   E   E  E  E  E  E  E  E      E   E  E  E  E  E  E  E   
----------------------------|----------------------------|
----------------------------|----------------------------|
----------------------------|----------------------------|
----------------------------|----------------------------|
----------------------------|----------------------------|
--13s--8--8--8--8--8--8--8--|--12s--7--7--7--7--7--7--7--|


  E  E  E  E  E  E  E  E     E  E  E  E  E  E  E  E   
--------------------------|--------------------------|
--------------------------|--------------------------|
--------------------------|--------------------------|
--7--7--3--3--3--3--3--3--|--6--6--2--2--2--2--2--2--|
--7--7--3--3--3--3--3--3--|--6--6--2--2--2--2--2--2--|
--7--7--3--3--3--3--3--3--|--6--6--2--2--2--2--2--2--|


  E   E   E   E  E   E   E   E     E   E   E   E  E  E  E  E   
--------------------------------|-----------------------------|
--------------------------------|-----------------------------|
--------------------------------|-----------------------------|
--------------------------------|-----------------------------|
--------------------------------|-----------------------------|
--0h--5h--7h--8--0h--5h--7h--8--|--0h--5h--7p--0--8--8--8--8--|


  Q    Q    Q    Q       Q    Q    Q    Q       E   E   E   E  E   E   E   E   
----------------------|----------------------|--------------------------------|
----------------------|----------------------|--------------------------------|
----------------------|----------------------|--------------------------------|
--7----7----7----7----|--7----5----5----5----|--------------------------------|
--6----6----6----6----|--6----5----5----5----|--------------------------------|
--7----7----7----7----|--7----5----5----5----|--0h--5h--7h--8--0h--5h--7h--8--|


  E   E   E   E  E  E  E  E     Q    Q    Q    Q       Q    Q    Q    Q     
-----------------------------|----------------------|----------------------|
-----------------------------|----------------------|----------------------|
-----------------------------|----------------------|----------------------|
-----------------------------|--7----7----7----7----|--7----5----5----5----|
-----------------------------|--6----6----6----6----|--6----5----5----5----|
--0h--5h--7p--0--8--8--8--8--|--7----7----7----7----|--7----5----5----5----|


  E  E  Q    E  E  Q       E  E  Q    E  E  Q       E  E  Q    E  E  Q     
------------------------|------------------------|------------------------|
------------------------|------------------------|------------------------|
------------------------|------------------------|------------------------|
------------------------|------------------------|------------------------|
--5----------------5----|--5----------------5----|--5----------------5----|
-----3--0----0--3-------|-----3--0----0--3-------|-----3--0----0--3-------|


  E  E  Q    E  E  Q       E  E  Q    E  E  Q       E  E  Q    E  E  Q     
------------------------|------------------------|------------------------|
------------------------|------------------------|------------------------|
------------------------|------------------------|------------------------|
------------------------|------------------------|------------------------|
--5----------------5----|--2----------------2----|--2----------------2----|
-----3--0----0--3-------|-----3--0----0--3-------|-----3--0----0--3-------|


  E  E  Q    E  E  Q       E  E  Q    E  E  Q       E  E  Q    E  E  Q     
------------------------|------------------------|------------------------|
------------------------|------------------------|------------------------|
------------------------|------------------------|------------------------|
------------------------|------------------------|------------------------|
--3----------------3----|--3----------------3----|--5----------------5----|
-----3--0----0--3-------|-----3--0----0--3-------|-----3--0----0--3-------|


  E  E  Q    E  E  Q       E  E  Q    E  E  Q       E  E  Q    E  E  Q     
------------------------|------------------------|------------------------|
------------------------|------------------------|------------------------|
------------------------|------------------------|------------------------|
------------------------|------------------------|------------------------|
--5----------------5----|--5----------------5----|--5----------------5----|
-----3--0----0--3-------|-----3--0----0--3-------|-----3--0----0--3-------|


  E  E  Q    E  E  Q       E  E  Q    E  E  Q       E  E  Q    E  E  Q     
------------------------|------------------------|------------------------|
------------------------|------------------------|------------------------|
------------------------|------------------------|------------------------|
------------------------|------------------------|------------------------|
--2----------------2----|--2----------------2----|--3----------------3----|
-----3--0----0--3-------|-----3--0----0--3-------|-----3--0----0--3-------|


  E  E  Q    E  E  Q       E   E   E   E  E  E  E  E   
------------------------|-----------------------------|
------------------------|-----------------------------|
------------------------|-----------------------------|
------------------------|-----------------------------|
--3----------------3----|-----------------------------|
-----3--0----0--3-------|--0h--5h--7h--8--0--0--0--0--|


   E   E  E  E  E  E  E  E     E   E   E   E  E  E  E  E   
----------------------------|-----------------------------|
----------------------------|-----------------------------|
----------------------------|-----------------------------|
----------------------------|-----------------------------|
----------------------------|-----------------------------|
--13s--8--0--8--0--0--0--0--|--0h--5h--7h--8--0--0--0--0--|


   E   E  E  E  E  E  E  E      E   E  E  E  E  E  E  E   
----------------------------|----------------------------|
----------------------------|----------------------------|
----------------------------|----------------------------|
----------------------------|----------------------------|
----------------------------|----------------------------|
--13s--8--0--8--0--0--0--0--|--13s--8--8--8--8--8--8--8--|


                                           PM    PM PM  
   E   E  E  E  E  E  E  E     E  E  E  E  E  E  E  E   
----------------------------|--------------------------|
----------------------------|--------------------------|
----------------------------|--------------------------|
----------------------------|--------------------------|
----------------------------|--0--5--7--8--------------|
--12s--7--7--7--7--7--7--7--|--------------0--0--0--0--|


  PM PM PM    PM    PM PM                  PM    PM PM  
  E  E  E  E  E  E  E  E      E   E  E  E  E  E  E  E   
--------------------------|----------------------------|
--------------------------|----------------------------|
--------------------------|----------------------------|
--------------------------|----------------------------|
--------------------------|--13s--5--7--8--------------|
--6--6--6--5--0--0--0--0--|----------------0--0--0--0--|


  PM PM PM    PM    PM PM                PM    PM PM  
  E  E  E  E  E  E  E  E     E  E  E  E  E  E  E  E   
--------------------------|--------------------------|
--------------------------|--------------------------|
--------------------------|--------------------------|
--------------------------|--------------------------|
--------------------------|--0--5--7--8--------------|
--3--3--3--6--0--0--0--0--|--------------0--0--0--0--|


  PM PM PM    PM    PM PM                               
  E  E  E  E  E  E  E  E      E   E  E  E  E  E  E  E   
--------------------------|----------------------------|
--------------------------|----------------------------|
--------------------------|----------------------------|
--------------------------|----------------------------|
--------------------------|----------------------------|
--6--6--6--5--0--0--0--0--|--13s--8--8--8--8--8--8--8--|


                                           PM    PM PM  
   E   E  E  E  E  E  E  E     E  E  E  E  E  E  E  E   
----------------------------|--------------------------|
----------------------------|--------------------------|
----------------------------|--------------------------|
----------------------------|--------------------------|
----------------------------|--0--5--7--8--------------|
--12s--7--7--7--7--7--7--7--|--------------0--0--0--0--|


  PM PM PM    PM    PM PM                  PM    PM PM  
  E  E  E  E  E  E  E  E      E   E  E  E  E  E  E  E   
--------------------------|----------------------------|
--------------------------|----------------------------|
--------------------------|----------------------------|
--------------------------|----------------------------|
--------------------------|--13s--5--7--8--------------|
--6--6--6--5--0--0--0--0--|----------------0--0--0--0--|


  PM PM PM    PM    PM PM                PM    PM PM  
  E  E  E  E  E  E  E  E     E  E  E  E  E  E  E  E   
--------------------------|--------------------------|
--------------------------|--------------------------|
--------------------------|--------------------------|
--------------------------|--------------------------|
--------------------------|--0--5--7--8--------------|
--3--3--3--6--0--0--0--0--|--------------0--0--0--0--|


  PM PM PM    PM    PM                                  
  E  E  E  E  E  E  E  E      E   E  E  E  E  E  E  E   
--------------------------|----------------------------|
--------------------------|----------------------------|
--------------------------|----------------------------|
--------------------------|----------------------------|
--------------------------|----------------------------|
--6--6--6--5--0--0--0--0--|--13s--8--8--8--8--8--8--8--|


   E   E  E  E  E  E  E  E     E  E  E  E  E  E  E  E   
----------------------------|--------------------------|
----------------------------|--------------------------|
----------------------------|--------------------------|
----------------------------|--------------------------|
----------------------------|--------------------------|
--12s--7--7--7--7--7--7--7--|--7--7--3--3--3--3--3--3--|


  E  E  E  E  E  E  E  E     E   E   E   E  E   E   E   E   
--------------------------|--------------------------------|
--------------------------|--------------------------------|
--------------------------|--------------------------------|
--------------------------|--------------------------------|
--------------------------|--------------------------------|
--6--6--2--2--2--2--2--2--|--0h--5h--7h--8--0h--5h--7h--8--|


  E   E   E   E  E  E  E  E     Q    Q    Q    Q       Q    Q    Q    Q     
-----------------------------|----------------------|----------------------|
-----------------------------|----------------------|----------------------|
-----------------------------|----------------------|----------------------|
-----------------------------|--7----7----7----7----|--7----5----5----5----|
-----------------------------|--6----6----6----6----|--6----5----5----5----|
--0h--5h--7p--0--8--8--8--8--|--7----7----7----7----|--7----5----5----5----|


  E   E   E   E  E   E   E   E     E   E   E   E  E  E  E  E   
--------------------------------|-----------------------------|
--------------------------------|-----------------------------|
--------------------------------|-----------------------------|
--------------------------------|-----------------------------|
--------------------------------|-----------------------------|
--0h--5h--7h--8--0h--5h--7h--8--|--0h--5h--7p--0--8--8--8--8--|


  Q    Q    Q    Q       Q    Q    Q    Q       E  E  Q    E  E  Q     
----------------------|----------------------|------------------------|
----------------------|----------------------|------------------------|
----------------------|----------------------|------------------------|
--7----7----7----7----|--7----5----5----5----|------------------------|
--6----6----6----6----|--6----5----5----5----|--5----------------5----|
--7----7----7----7----|--7----5----5----5----|-----3--0----0--3-------|


  E  E  Q    E  E  Q       E  E  Q    E  E  Q       E  E  Q    E  E  Q     
------------------------|------------------------|------------------------|
------------------------|------------------------|------------------------|
------------------------|------------------------|------------------------|
------------------------|------------------------|------------------------|
--5----------------5----|--5----------------5----|--5----------------5----|
-----3--0----0--3-------|-----3--0----0--3-------|-----3--0----0--3-------|


  E  E  Q    E  E  Q       E  E  Q    E  E  Q       E  E  Q    E  E  Q     
------------------------|------------------------|------------------------|
------------------------|------------------------|------------------------|
------------------------|------------------------|------------------------|
------------------------|------------------------|------------------------|
--2----------------2----|--2----------------2----|--3----------------3----|
-----3--0----0--3-------|-----3--0----0--3-------|-----3--0----0--3-------|


  E  E  Q    E  E  Q       E  E  Q    E  E  Q       E  E  Q    E  E  Q     
------------------------|------------------------|------------------------|
------------------------|------------------------|------------------------|
------------------------|------------------------|------------------------|
------------------------|------------------------|------------------------|
--3----------------3----|--5----------------5----|--5----------------5----|
-----3--0----0--3-------|-----3--0----0--3-------|-----3--0----0--3-------|


  E  E  Q    E  E  Q       E  E  Q    E  E  Q       E  E  Q    E  E  Q     
------------------------|------------------------|------------------------|
------------------------|------------------------|------------------------|
------------------------|------------------------|------------------------|
------------------------|------------------------|------------------------|
--5----------------5----|--5----------------5----|--2----------------2----|
-----3--0----0--3-------|-----3--0----0--3-------|-----3--0----0--3-------|


  E  E  Q    E  E  Q       E  E  Q    E  E  Q       E  E  Q    E  E  Q     
------------------------|------------------------|------------------------|
------------------------|------------------------|------------------------|
------------------------|------------------------|------------------------|
------------------------|------------------------|------------------------|
--2----------------2----|--3----------------3----|--3----------------3----|
-----3--0----0--3-------|-----3--0----0--3-------|-----3--0----0--3-------|


   S   S   E  E   E   E   E  E  E      S   S   E  E   E   E   E  E  E   
-----------------------------------|-----------------------------------|
-----------------------------------|-----------------------------------|
-----------------------------------|-----------------------------------|
-----------------------------------|-----------------------------------|
-----------------------------------|-----------------------------------|
--10h-12p-10--0--12--14--15--0--0--|--10h-12p-10--0--12--14--15--0--0--|


   S   S   E  E   E   E   E  E   E      E   E  E   E   E   E   E   E   
------------------------------------|---------------------------------|
------------------------------------|---------------------------------|
------------------------------------|---------------------------------|
------------------------------------|---------------------------------|
------------------------------------|---------------------------------|
--11h-12p-11--0--12--15--16--0--12--|--15--16--0--12--15--16--13--12--|


  E  E   S   S   E  E   E   E   E     E  E   S   S   E  E   E   E   E   
-----------------------------------|-----------------------------------|
-----------------------------------|-----------------------------------|
-----------------------------------|-----------------------------------|
-----------------------------------|-----------------------------------|
-----------------------------------|-----------------------------------|
--0--0--10h-12p-10--0--15--14--12--|--0--0--10h-12p-10--0--15--14--12--|


  E  E   S   S   E  E   E   E   E     E   E   E   E  E   E   E   E   
-----------------------------------|--------------------------------|
-----------------------------------|--------------------------------|
-----------------------------------|--------------------------------|
-----------------------------------|--------------------------------|
-----------------------------------|--------------------------------|
--0--0--11h-12p-11--0--16--15--12--|--0--16--15--12--0--16--15--12--|


  W                    E  E  E  E  E  E  E  E     E  E  Q      H            
--------------------|--------------------------|---------------------------|
--------------------|--------------------------|-----4--6br----6pbr--------|
--------------------|--------------------3--5--|--7------------------------|
--------------------|-----------3--5--7--------|---------------------------|
--3~----------------|--3--5--6-----------------|---------------------------|
--------------------|--------------------------|---------------------------|


   T         T         T         T                                            
   |--3--|   |--3--|   |--3--|   |--3--|                                      
   E  E  E   E  E  E   E  E  E   E  E  E      E   E   E   E   E   E   E   E   
------------------------------------------|--15--12------15--12------15--12--|
--12--6--4--13--6--4--12--6--4--13--6--4--|----------13----------13----------|
------------------------------------------|----------------------------------|
------------------------------------------|----------------------------------|
------------------------------------------|----------------------------------|
------------------------------------------|----------------------------------|


   E   E   E   E   E   E   E   E      E   E   E   E   E   E   E   E   
--17--14------17--14------17--14--|--18--15------18--15------18--15--|
----------15----------15----------|----------17----------17----------|
----------------------------------|----------------------------------|
----------------------------------|----------------------------------|
----------------------------------|----------------------------------|
----------------------------------|----------------------------------|


   E   E   E   E   E   E   E   E      H           H           
--------------------------18--20--|--21br--------21b~--------|
--------------18--20--22----------|--------------------------|
--17--19--20----------------------|--------------------------|
----------------------------------|--------------------------|
----------------------------------|--------------------------|
----------------------------------|--------------------------|


   E   E   E   E   E   E   E   E      E   E   E   E   E   E   E   E   
----------------------17--18--20--|--22--20--18----------------------|
----------------------------------|--------------22--20--19----------|
------------------17--------------|--------------------------20--19--|
--------------17------------------|----------------------------------|
--15--17--18----------------------|----------------------------------|
----------------------------------|----------------------------------|


   E   E   E   E   H            E  E  E  E  E  E  E   E   
-----------------------------|---------------------------|
-----------------------------|---------------------------|
--17-------------------------|--0--7--0--7--8--0--8--10--|
------20--19--17--16~--------|---------------------------|
-----------------------------|---------------------------|
-----------------------------|---------------------------|


  E   E   E  E   E   E  E   E      E  E   E   E  E   E   E  E   
-------------------------------|-------------------------------|
-------------------------------|-------------------------------|
--0--10--12--0--12--14--0--14--|--15--0--15--17--0--17--19--0--|
-------------------------------|-------------------------------|
-------------------------------|-------------------------------|
-------------------------------|-------------------------------|


   S  S  S  S  S  S  S  S  H             W                  
--19-15----------------15-22~--------|---------------------|
--------16----------16---------------|---------------------|
-----------17----17------------------|--15~----------------|
--------------17---------------------|---------------------|
-------------------------------------|---------------------|
-------------------------------------|---------------------|


   Q     Q     Q      Q        W                     Q      Q     Q     Q     
---------------------------|---------------------|---------------------------|
---------------------------|---------------------|---------------------------|
--15----17----15s----14----|--17b----------------|--19s----17----19----19----|
---------------------------|---------------------|---------------------------|
---------------------------|---------------------|---------------------------|
---------------------------|---------------------|---------------------------|


   W                     Q      Q     Q      Q        W                  
---------------------|----------------------------|---------------------|
---------------------|----------------------------|---------------------|
--17~----------------|--17s----15----15s----14----|--15~----------------|
---------------------|----------------------------|---------------------|
---------------------|----------------------------|---------------------|
---------------------|----------------------------|---------------------|


   PM  PM  PM  PM                                    
   E   E   E   E   E   Q.         W                  
------------------------------|---------------------|
------------------------------|---------------------|
------------------19--17------|--15~----------------|
--------------17--------------|---------------------|
--15--17--18------------------|---------------------|
------------------------------|---------------------|


   PM  PM  PM  PM                                           
   E   E   E   E   E   E   E   E      E   E   H.            
----------------------------------|------------------------|
----------------------------------|------------------------|
----------------------------------|--15--17--19------------|
------------------15--13--12------|------------------------|
--13--15--13--15--------------15--|------------------------|
----------------------------------|------------------------|


   E   E   E   E   Q     E   E      E   E   E   E   E   E   E   E   
--------------------------------|----------------------------------|
------------------16----15--13--|--15--13------13------------------|
--15--14--15--14----------------|----------15------15--14--12------|
--------------------------------|------------------------------15--|
--------------------------------|----------------------------------|
--------------------------------|----------------------------------|


   E   E   E   E   H            S  S  S  S  S  S  E   E   E   E   E   
----------------------------|--18-17-15----------15--17--15------15--|
----------------------------|-----------18-17-15-------------18------|
--15--14--12--14--12--------|----------------------------------------|
----------------------------|----------------------------------------|
----------------------------|----------------------------------------|
----------------------------|----------------------------------------|


   S  S  S  S  S  S  E   E   E   E   E     E   E   E   E  E  E  E  E   
--17-15-13----------13--15--13------13--|-----------------------------|
-----------17-15-13-------------17------|-----------------------------|
----------------------------------------|-----------------------------|
----------------------------------------|-----------------------------|
----------------------------------------|-----------------------------|
----------------------------------------|--0h--5h--7h--8--0--0--0--0--|


   E   E  E  E  E  E  E  E     E   E   E   E  E  E  E  E   
----------------------------|-----------------------------|
----------------------------|-----------------------------|
----------------------------|-----------------------------|
----------------------------|-----------------------------|
----------------------------|-----------------------------|
--13s--8--0--8--0--0--0--0--|--0h--5h--7h--8--0--0--0--0--|


  |--3--|  |--3-|  |--3--|  |--3-|                                 
  E  E  E  Q    E  E  E  E  Q    E     E   E   E   E  E  E  E  E   
------------------------------------|-----------------------------|
------------------------------------|-----------------------------|
------------------------------------|-----------------------------|
------------------------------------|-----------------------------|
------------------------------------|-----------------------------|
--0--0--0--0-------0--0--0--0-------|--0h--5h--7h--8--0--0--0--0--|


   E   E  E  E  E  E  E  E     E  E  E  E  E  Q.        E  E  E  E  E  Q.      
----------------------------|------------------------|------------------------|
----------------------------|------------------------|------------------------|
----------------------------|------------------------|------------------------|
----------------------------|-----------------3------|-----------------1------|
----------------------------|--8--8--8--8--8--3------|--3--3--3--3--3--1------|
--13s--8--0--8--0--0--0--0--|-----------------3------|-----------------1------|


  E   E   E   E  E  E  E  E      E   E  E  E  E  E  E  E   
-----------------------------|----------------------------|
-----------------------------|----------------------------|
-----------------------------|----------------------------|
-----------------------------|----------------------------|
-----------------------------|----------------------------|
--0h--5h--7h--8--0--0--0--0--|--13s--8--0--8--0--0--0--0--|


                                |--3--|  |--3-|  |--3--|  |--3-|   
  E   E   E   E  E  E  E  E     E  E  E  Q    E  E  E  E  Q    E   
-----------------------------|------------------------------------|
-----------------------------|------------------------------------|
-----------------------------|------------------------------------|
-----------------------------|-----------0----------------0-------|
-----------------------------|-----------0----------------0-------|
--0h--5h--7h--8--0--0--0--0--|--0--0--0--0-------0--0--0--0-------|


  E   E   E   E  E  E  E  E      E   E  E  E  E  E  E  E   
-----------------------------|----------------------------|
-----------------------------|----------------------------|
-----------------------------|----------------------------|
-----------------------------|----------------------------|
-----------------------------|----------------------------|
--0h--5h--7h--8--0--0--0--0--|--13s--8--0--8--0--0--0--0--|


  E  E  E  E  E  Q.        E  E  E  E  E  Q.        Q    Q    Q    Q      
------------------------|------------------------|----------------------||
------------------------|------------------------|----------------------||
------------------------|------------------------|----------------------||
-----------------3------|-----------------1------|--0-------------------||
--8--8--8--8--8--3------|--3--3--3--3--3--1------|--0-------------------||
-----------------3------|-----------------1------|--0-------------------||




Duration Legend
---------------
W - whole
H - half
Q - quarter
E - 8th
S - 16th
T - 32nd
X - 64th
. - note dotted
|-n-|  - n-tuplets


Tablature Legend
----------------
L - tied note
x - dead note
g - grace note
(n) - ghost note
> - accentuded note
NH - natural harmonic
AH - artificial harmonic
TH - tapped harmonic
SH - semi harmonic
PH - pitch harmonic
h - hammer on
p - pull off
b - bend
br - bendRelease
pb - preBend
pbr - preBendRelease
brb - bendReleaseBend
\n/ - tremolo bar dip
\n - tremolo bar dive
-/n - tremolo bar Release up
/n\ - tremolo bar inverted dip
/n - tremolo bar return
-\n - tremolo bar Release down
S - shift slide
s - legato slide
/ -  slide into from below or out of upwards
\ -  slide into from above or out of downwards
~ - vibrato
W - wide vibrato
tr - trill
TP - tremolo picking
T - tapping
S - slap
P - pop
< - fade in
^ - brush up
v - brush down

Special thanks to triviumrain210 for making the guitar pro tab.
Link to profile:

http://profile.ultimate-guitar.com/triviumrain210/
Tap to rate this tab
# A B C D E F G H I J K L M N O P Q R S T U V W X Y Z