Song name
# A B C D E F G H I J K L M N O P Q R S T U V W X Y Z

Devildriver - I Could Care Less tab

I could care less by devil driver this is how i play it.

Intro

GUITAR 1:  00:00 stops playing at 00:31

C#|-13-------13-------15-------17----------17----------|
G#|----15-15----15-15----15-15----15-15-15----15-------|
E |----------------------------------------------------|
B |----------------------------------------------------|
F#|----------------------------------------------------|
B |----------------------------------------------------|


GUITAR 2 00:10 X 4
C#|-----------------------------------|
G#|-----------------------------------|
E |-----------------------------------|
B |-3-0-------------------------------|
F#|-3-0-------------------------------|
B |-3-0-------------------------------|

Guitar 2 00:20 X 4

C#|-----------------------------------|
G#|-----------------------------------|
E |-----------------------------------|
B |-3-0-------------------------------|
F#|-3-0-------------------------------|
B |-3-0---0-000-0-000----000--000--000|
          . ... . ...    ...  ...  ...

Intro and Verse

C#|-------------------------|
G#|-------------------------|
E |-------------------------|
B |-3p0-3P0-3p0-2-2-2-2-----|
F#|-3p0-3p0-3p0-2-2-2-2-----|
B |-3p0-3p0-3p0-2-2-2-2-----|

00:42 X 4

C#|-13-------13----|
G#|----15-15----15-|
E |----------------|
B |----------------|
F#|----------------|
B |----------------|


X 2
C#|----------------------------------------------------|
G#|----------------------------------------------------|
E |----------------------------------------------------|
B |-------------------------0-------------------------5|
F#|-------------------------0-------------------------5|
B |-0-5-8-0-5-8-0-5-8-0-5-8-0-0-5-8-0-5-8-0-5-8-0-5-8-5|

Then this

C#|-------------------------|
G#|-------------------------|
E |-------------------------|
B |------------------------8|
F#|------------------------8|
B |0-5-8-0-5-8-0-5-8-0-5-8-8|


C#|---------------------|
G#|---------------------|
E |---------------------|
B |-8/4-0-1\4-0---------| X 2
F#|-8/4-0-1\4-0---------|
B |-8/4-0-1\4-0---------|


C#|-----------|---------------------|
G#|-----------|---------------------|
E |-----------|---------------------|
B |8/4-0-1\4-0|-8/4-0-1\4-0---------| X 2
F#|8/4-0-1\4-0|-8/4-0-1\4-0---------|
B |8/4-0-1\4-0|-8/4-0-1\4-0---------|

C#|------------|
G#|------------|
E |------------|
B |-8/4-0-1\4-0| THIS IS PLAYED WITH THE INTRO
F#|-8/4-0-1\4-0|
B |-8/4-0-1\4-0|


C#|-----|-------------|
G#|-----|-------------|
E |-----|-------------|
B |1\4-0|1\4-0--------|
F#|1\4-0|1\4-0--------|
B |1\4-0|1\4-0--------|

C#|----------------------|
G#|----------------------|
E |----------------------|
B |----------------------|    x 2
F#|----------------------|
B |-8-4-0-1-4-0----------|

C#|---------------|
G#|---------------|
E |---------------|
B |---------------|  x3
F#|---------------|
B |111114444400000|

Final part:

C#|----------------|
G#|----------------|
E |----------------|
B |-1-1-1-4-4-4-0--|
F#|-1-1-1-4-4-4-0--|
B |-1-1-1-4-4-4-0--|

 AND THATS IT FOLKS
Tap to rate this tab
# A B C D E F G H I J K L M N O P Q R S T U V W X Y Z