Song name
# A B C D E F G H I J K L M N O P Q R S T U V W X Y Z

Devildriver - Meet The Wretched tab

tunning:(B,F#,B,E,G#,C#)

C#|------------------------------------------------------|
G#|------------------------------------------------------|
E |------------------------------------------------------|
B |----------------------------5-7-8-7-------------------|
F#|--11111111111111111--9------5-7-8-7-------------------|
B |--11111111111111111---------5-7-8-7-------------------|

C#|-----------------------|
G#|-----------------------|
E |-----------------------|
B |--5-5-7-7-8-8-7-7------|
F#|--5-5-7-7-8-8-7-7------|
B |--5-5-7-7-8-8-7-7------|

C#|----------------------------------------------------------|
G#|----------------------------------------------------------|
E |----------------------------------------------------------|
B |--5-5-5-7-7-7-5-5-5-7-7-7-5-5-5-7-7-7-11-11-11-11-11------|
F#|--5-5-5-7-7-7-5-5-5-7-7-7-5-5-5-7-7-7-11-11-11-11-11-x2---|
B |--5-5-5-7-7-7-5-5-5-7-7-7-5-5-5-7-7-7-11-11-11-11-11------|

C#|--------------------------------------------------------|
G#|--171717171616161613131313151515151212121213131313------|
E |--------------------------------------------------------|
B |--------------------------------------------------------|
F#|--------------------------------------------------------|
B |--------------------------------------------------------|

C#|--------------------------|
G#|--17-16-13-15-12-13-x2----|
E |--------------------------|
B |--------------------------|
F#|--------------------------|
B |--------------------------|

C#|----------------------------------------|
G#|----------------------------------------|
E |----------------------------------------|
B |-5554445554445554445554445557755444-----|
F#|----------------------------------------|
B |----------------------------------------|

C#|---------------------------------------|
G#|---------------------------------------|
E |---------------------------------------|
B |-888777888777888777888777888101088777--|
F#|---------------------------------------|
B |---------------------------------------|

C#|---------------|
G#|---------------|
E |---------------|
B |-5-7-5-7-5-5---|
F#|-5-7-5-7-5-5---|
B |-5-7-5-7-5-5---|

C#|--------------------|
G#|--------------------|
E |--5-7-5-7-5-7-11----|
B |--5-7-5-7-5-7-11----|
F#|--5-7-5-7-5-7-11----|
B |--------------------|
Tap to rate this tab
 
# A B C D E F G H I J K L M N O P Q R S T U V W X Y Z