Song name
# A B C D E F G H I J K L M N O P Q R S T U V W X Y Z

Devildriver - Hold Back The Day tab

Band: DevilDriver
Song:Hold Back The Day
Tabbed By: Michael Stewart
Tuning: Drop C

There might some parts missing or not in perfect order but this basically it.
all the tabs that i found were drop B, but drop C sounds better, and anyways the 
from devildriver say that they use drop c not drop b.

Intro 1 (clean)
|--------------------------------------------------------------------------|
|--------------------------------------------------------------------------|
|-----0-3--------0-3--------7-----------6----------------------------------|
|----------0-------------------8-------------------------------------------|
|---0---------0----------8-----------7-------------------------------------|
|-0-------------------8------------7---------------------------------------|

|--------------------------------------------------------------------------|
|--------------------------------------------------------------------------|
|-----0-3--------0-3--------7-----------6-6--------------------------------|
|----------0-------------------8-------------------------------------------|
|---0---------0----------8-----------7-------------------------------------|
|-0-------------------8------------7---------------------------------------|


|--------------------------------------------------------------------------|
|--------------------------------------------------------------------------|
|-----0-3--------0-3--------7-----------6-6--------------------------------|
|----------0-------------------8-------------------------------------------|
|---0---------0----------8-----------7-------------------------------------|
|-0-------------------8------------7---------------------------------------|

Intro 2-(Heavy Distortion)
|-------------------------------------------------------------------------|
|-------------------------------------------------------------------------|
|-------------------------------------------------------------------------|
|-0-3-0-3-0-3-0-3--0-8-0-8-0-7-0-7----------------------------------------|
|-0-3-0-3-0-3-0-3--0-8-0-8-0-7-0-7----------------------------------------|
|-0-3-0-3-0-3-0-3--0-8-0-8-0-7-0-7----------------------------------------|


|-------------------------------------------------------------------------|
|-------------------------------------------------------------------------|
|-------------------------------------------------------------------------|
|-0-3-0-3-0-3-0-3--0-8-0-8-0-7-0-7----------------------------------------|
|-0-3-0-3-0-3-0-3--0-8-0-8-0-7-0-7---------15b----------------------------|
|-0-3-0-3-0-3-0-3--0-8-0-8-0-7-0-7----------------------------------------|


Intro 3-(Heavy Distortion)
|---------------------------------------------------------------------------|
|---------------------------------------------------------------------------|
|---------------------------------------------------------------------------|
|------------------------------------------------------12121212121212121212-|
|12121212121212121212121212-13131313131313131313131313----------------------|
|---------------------------------------------------------------------------|

|--------------------------------------------------------------------------|
|--------------------------------------------------------------------------|
|--------------------------------------------------------------------------|
|-1111111111111111111111---------------------------------------------------|
|--------------------------------------------------------------------------|
|--------------------------------------------------------------------------|

|--------------------------------------------------------------------------|
|--------------------------------------------------------------------------|
|--------------------------------------------------------------------------|
|--------------------------------------------------------------------------|
|12121212121212121212121212-13131313131313131313131313---------------------|
|--------------------------------------------------------------------------|

|--------------------------------------------------------------------------|
|--------------------------------------------------------------------------|
|--------------------------------------------------------------------------|
|-15151515151514141414141414-----------------6b----------------------------|
|--------------------------------------------------------------------------|
|-------------------------------7-8-7-5-7-0--------------------------------|

|---------------------------------------------------------------------------|
|---------------------------------------------------------------------------|
|---------------------------------------------------------------------------|
|------------------------------------------------------12121212121212121212-|
|12121212121212121212121212-13131313131313131313131313----------------------|
|---------------------------------------------------------------------------|

|--------------------------------------------------------------------------|
|--------------------------------------------------------------------------|
|--------------------------------------------------------------------------|
|-1111111111111111111111---------------------------------------------------|
|--------------------------------------------------------------------------|
|--------------------------------------------------------------------------|

|--------------------------------------------------------------------------|
|--------------------------------------------------------------------------|
|--------------------------------------------------------------------------|
|--------------------------------------------------------------------------|
|12121212121212121212121212-13131313131313131313131313---------------------|
|--------------------------------------------------------------------------|

|--------------------------------------------------------------------------|
|--------------------------------------------------------------------------|
|--------------------------------------------------------------------------|
|-15151515151514141414141414-----------------------------------------------|
|--------------------------------------------------------------------------|
|--------------------------------------------------------------------------|


Verse
|--------------------------------------------------------------------------|
|--------------------------------------------------------------------------|
|--------------------------------------------------------------------------|
|-1-0--00-000000000--1-0-00-000000000-1-0-00-000000000---------------------|
|-1-0--00-000000000--1-0-00-000000000-1-0-00-000000000---------------------|
|-1-0--00-000000000--1-0-00-000000000-1-0-00-000000000---------------------|
    *  ** *********    * ** *********   * ** *********
|--------------------------------------------------------------------------|
|--------------------------------------------------------------------------|
|--------------------------------------------------------------------------|
|---------3-2---------------5-3--------------------------------------------|
|-1-0-00--1-0--3-0--1-0-00--3-1--3-0---------------------------------------|
|-1-0-00-------3-0--1-0-00-------3-0---------------------------------------|
    * **         *    * **         *   (listen for the palm-mutes and the amount of time played)
THEN

Pre-Chorus:
|--10-13-10-13-10-13----13-----13-----12-12b-------------------------------|
|--------------------11----11-----10---------------------------------------|
|--------------------------------------------------------------------------|
|--------------------------------------------------------------------------|
|--------------------------------------------------------------------------|
|--------------------------------------------------------------------------|

|--10-13-10-13-10-13----13-----13-----12-12b-------------------------------|
|--------------------11----11-----10---------------------------------------|
|--------------------------------------------------------------------------|
|--------------------------------------------------------------------------|
|--------------------------------------------------------------------------|
|--------------------------------------------------------------------------|

Chorus-(Heavy Distortion)
|---------------------------------------------------------------------------|
|---------------------------------------------------------------------------|
|---------------------------------------------------------------------------|
|------------------------------------------------------12121212121212121212-|
|12121212121212121212121212-13131313131313131313131313----------------------|
|---------------------------------------------------------------------------|

|--------------------------------------------------------------------------|
|--------------------------------------------------------------------------|
|--------------------------------------------------------------------------|
|-1111111111111111111111---------------------------------------------------|
|--------------------------------------------------------------------------|
|--------------------------------------------------------------------------|

|--------------------------------------------------------------------------|
|--------------------------------------------------------------------------|
|--------------------------------------------------------------------------|
|--------------------------------------------------------------------------|
|12121212121212121212121212-13131313131313131313131313---------------------|
|--------------------------------------------------------------------------|

|--------------------------------------------------------------------------|
|--------------------------------------------------------------------------|
|--------------------------------------------------------------------------|
|-15151515151514141414141414-----------------6b----------------------------|
|--------------------------------------------------------------------------|
|-------------------------------7-8-7-5-7-0--------------------------------|

|---------------------------------------------------------------------------|
|---------------------------------------------------------------------------|
|---------------------------------------------------------------------------|
|------------------------------------------------------12121212121212121212-|
|12121212121212121212121212-13131313131313131313131313----------------------|
|---------------------------------------------------------------------------|

|--------------------------------------------------------------------------|
|--------------------------------------------------------------------------|
|--------------------------------------------------------------------------|
|-1111111111111111111111---------------------------------------------------|
|--------------------------------------------------------------------------|
|--------------------------------------------------------------------------|

|--------------------------------------------------------------------------|
|--------------------------------------------------------------------------|
|--------------------------------------------------------------------------|
|--------------------------------------------------------------------------|
|12121212121212121212121212-13131313131313131313131313---------------------|
|--------------------------------------------------------------------------|

|--------------------------------------------------------------------------|
|--------------------------------------------------------------------------|
|--------------------------------------------------------------------------|
|-15151515151514141414141414-----------------------------------------------|
|--------------------------------------------------------------------------|
|--------------------------------------------------------------------------|


Verse
|--------------------------------------------------------------------------|
|--------------------------------------------------------------------------|
|--------------------------------------------------------------------------|
|-1-0--00-000000000--1-0-00-000000000-1-0-00-000000000---------------------|
|-1-0--00-000000000--1-0-00-000000000-1-0-00-000000000---------------------|
|-1-0--00-000000000--1-0-00-000000000-1-0-00-000000000---------------------|
    *  ** *********    * ** *********   * ** *********
|--------------------------------------------------------------------------|
|--------------------------------------------------------------------------|
|--------------------------------------------------------------------------|
|---------3-2---------------5-3--------------------------------------------|
|-1-0-00--1-0--3-0--1-0-00--3-1--3-0---------------------------------------|
|-1-0-00-------3-0--1-0-00-------3-0---------------------------------------|
    * **         *    * **         *   (listen for the palm-mutes and the amount of time played)


Bridge Thingy
|--------------------------------------------------------------------------|
|--------------------------------------------------------------------------|
|--------------------------------------------------------------------------|
|-0-5-7-3-0-0-------0-5-7-3-3-3--------0-5-7-2-2-2-------------------------|
|-0-5-7-3-0-0--(X2)-0-5-7-3-3-3--------0-5-7-2-2-2-------------------------|
|-0-5-7-3-0-0-------0-5-7-3-3-3--------0-5-7-2-2-2-------------------------|
    * * * * *         * * * * *          * * * * * (listen for correct palm-mutes)

Chorus-(Heavy Distortion)
|---------------------------------------------------------------------------|
|---------------------------------------------------------------------------|
|---------------------------------------------------------------------------|
|------------------------------------------------------12121212121212121212-|
|12121212121212121212121212-13131313131313131313131313----------------------|
|---------------------------------------------------------------------------|

|--------------------------------------------------------------------------|
|--------------------------------------------------------------------------|
|--------------------------------------------------------------------------|
|-1111111111111111111111---------------------------------------------------|
|--------------------------------------------------------------------------|
|--------------------------------------------------------------------------|

|--------------------------------------------------------------------------|
|--------------------------------------------------------------------------|
|--------------------------------------------------------------------------|
|--------------------------------------------------------------------------|
|12121212121212121212121212-13131313131313131313131313---------------------|
|--------------------------------------------------------------------------|

|--------------------------------------------------------------------------|
|--------------------------------------------------------------------------|
|--------------------------------------------------------------------------|
|-15151515151514141414141414-----------------6b----------------------------|
|--------------------------------------------------------------------------|
|-------------------------------7-8-7-5-7-0--------------------------------|

|---------------------------------------------------------------------------|
|---------------------------------------------------------------------------|
|---------------------------------------------------------------------------|
|------------------------------------------------------12121212121212121212-|
|12121212121212121212121212-13131313131313131313131313----------------------|
|---------------------------------------------------------------------------|

|--------------------------------------------------------------------------|
|--------------------------------------------------------------------------|
|--------------------------------------------------------------------------|
|-1111111111111111111111---------------------------------------------------|
|--------------------------------------------------------------------------|
|--------------------------------------------------------------------------|

|--------------------------------------------------------------------------|
|--------------------------------------------------------------------------|
|--------------------------------------------------------------------------|
|--------------------------------------------------------------------------|
|12121212121212121212121212-13131313131313131313131313---------------------|
|--------------------------------------------------------------------------|

|--------------------------------------------------------------------------|
|--------------------------------------------------------------------------|
|--------------------------------------------------------------------------|
|-15151515151514141414141414-----------------------------------------------|
|--------------------------------------------------------------------------|
|--------------------------------------------------------------------------|

Outro-
(Heavy Distortion)
|-------------------------------------------------------------------------|
|-------------------------------------------------------------------------|
|-------------------------------------------------------------------------|
|-0-3-0-3-0-3-0-3--0-8-0-8-0-7-0-7----------------------------------------|
|-0-3-0-3-0-3-0-3--0-8-0-8-0-7-0-7----------------------------------------|
|-0-3-0-3-0-3-0-3--0-8-0-8-0-7-0-7----------------------------------------|

|-------------------------------------------------------------------------|
|-------------------------------------------------------------------------|
|-------------------------------------------------------------------------|
|-0-3-0-3-0-3-0-3--0-8-0-8-0-7-0-7----------------------------------------|
|-0-3-0-3-0-3-0-3--0-8-0-8-0-7-0-7----------------------------------------|
|-0-3-0-3-0-3-0-3--0-8-0-8-0-7-0-7----------------------------------------|
Tap to rate this tab
# A B C D E F G H I J K L M N O P Q R S T U V W X Y Z