Song name
# A B C D E F G H I J K L M N O P Q R S T U V W X Y Z

Devildriver - The Fury Of Our Makers Hand tab

Help us improve GuitareTab! Take a short survey!
INTRO-


C#-----------------------------------------------------------------|
G#-----------------------------------------------------------------|
E -----------------------------------------------------------------|
B --7-----7-----7-----7--0-----0-----0-----0--3-----3-----3-----3--|
F#--7-7-7-7-7-7-7-7-7-7--0-0-0-0-0-0-0-0-0-0--3-3-3-3-3-3-3-3-3-3--|
B --7-7-7-7-7-7-7-7-7-7--0-0-0-0-0-0-0-0-0-0--3-3-3-3-3-3-3-3-3-3--|
      * *   * *   * *      * *   * *   * *      * *   * *   * *
continued-
C#-----------------------------------------|
G#-----------------------------------------|
E -----------------------------------------|
B --2-----2-----2-----2--------------------|
F#--2-2-2-2-2-2-2-2-2-2--------------------|
B --2-2-2-2-2-2-2-2-2-2--------------------|
      * *   * *   * *
they play this part along with the intro

C#-------------------------------------------------|
G#-------------------------------------------------|
E -------------------------------------------------|  
Related for The Fury Of Our Makers Hand tab