Song name
# A B C D E F G H I J K L M N O P Q R S T U V W X Y Z

Devildriver - Bear Witness tab

Tuning:Drop b

e|-----------------------------------------------------------------|
B|-----------------------------------------------------------------|
G|-----------------------------------------------------------------|
D|-------19-------19-------------------18-------------------17-----|
A|-0h15---15-0h15----15-0h15-0h15-0h15----15-0h15-0h15-0h15----15--|
E|-----------------------------------------------------------------|

e|---------------------------------------------------------------|
B|---------------------------------------------------------------|
G|---------------------------------------------------------------|
D|--------------------------------------^19--------------- -^18--|
A|-11-11-11-10-10-10-8----0h15-0h15-0h15----0h15-0h15-0h15-------|
E|---------------------------------------------------------------|

e|---------------------------------------|
B|---------------------------------------|
G|---------------------------------------|
D|----------------^17--------------------|
A|-0h15-0h15-0h15-----8-8-8-10-10-10-11--|
E|---------------------------------------|

e|--------------------------------------------------------------------|
B|--------------------------------------------------------------------|
G|--------------------------------------------------------------------|
D|----------------19-------------------18---------------------17------|
A|-0h15-0h15-0h15----15-0h15-0h15-0h15----15-0h15-0h15-0h15-------15--|
E|--------------------------------------------------------------------|

e|----------------------|
B|----------------------|
G|----------------------|
D|----------------------|
A|-11-11-11-10-10-10-9--|
E|----------------------|

e|----------------------------------------------------------|
B|----------------------------------------------------------|
G|----------------------------------------------------------|
D|----------------15-----------------14-----------------13--|
A|-0h15-0h15-0h15----0h15-0h15-0h15-----0h15-0h15-0h15------|
E|----------------------------------------------------------|

e|-----------------------------------------------------------------|
B|-----------------------------------------------------------------|
G|-----------------------------------------------------------------|
D|-----------------------------------------------------------------|
A|-8-8-8-10-10-10-11-11-8-8-8-10-10-10-11-11-8-8-8-10-10-10-11-11--|
E|-----------------------------------------------------------------|

e|-------------------------------------------------------------------------------------|
B|-9-9-9-8-8-8-6-6---------------------------------------------------------------------|
G|-------------------------------------------------------------------------------------|
D|-------------------------------------------------------------------------------------|
A|-------------------------------------------------------------------------------------|
E|-------------------------------------------------------------------------------------|


-This is tabbed out only for one guitar-
Tap to rate this tab
# A B C D E F G H I J K L M N O P Q R S T U V W X Y Z