Guitaretab - guitar tabs
Song name
# A B C D E F G H I J K L M N O P Q R S T U V W X Y Z

Devildriver - Impending Disaster tab

This is my first tab that I think is tabbed right. It sounds good to me.

Intro:
|-----------------------------------|
|-----------------------------------|
|-----------------------------------|
|-----------------------------------|
|---(about 10x)-------(" ")---------|
|--9-----------9--12/4-----4-4-450--|
  pm           ~    pm     ~
Fig 1    (Guitar 1)                                        2x
|-----------------------------------------------------------|
|-----------------------------------------------------------|
|-----------------------------------------------------------|
|--4-xx-4-xx-4-x-3-xx-3-xx-3-x-2-xx-2-xx-2-x-1-xx-1-xx-1-x--|
|--4-xx-4-xx-4-x-3-xx-3-xx-3-x-2-xx-2-xx-2-x-1-xx-1-xx-1-x--|
|--4-xx-4-xx-4-x-3-xx-3-xx-3-x-2-xx-2-xx-2-x-1-xx-1-xx-1-x--|

(Guitar 2)                                                       
|-----------------------------------------------------------------|
|-----------------------------------------------------------------|
|--5--5-5-4--4-4-3--3-3-2--2-2----5--5-5--4--4-4--3--3-3--2--2-2--|
|---(This string palm muted)-->-44-44-4-33-33-3-22-22-2-11-11-1---|
|-----------------------------------------------------------------|
|-----------------------------------------------------------------|
  |------Pinch Harmonic-------|

Fig 2 (Guitar 1 & 2)              2x
|----------------------------------|
|----------------------------------|
|----------------------------------|
|---------------------------34--45-|
|-000-00-0-00-3300-00-00--35--35---|
|-000-00-0-00-3300-00-00-0---------|

Verse                                 2x
|---------------------------------------|
|---------------------------------------|
|---------------------------------------|
|--------------------------------34--45-|
|-30-000-000-000-00030-000-000-35--35---|
|-30-000-000-000-00030-000-000----------|
                              |---PM---|
                                       2x
|---------------------------------------|
|---------------------------------------|
|---------------------------------------|
|---------------------------------------|
|-0-0-333-0-0-333-0-0-333-333555444666--|
|-0-0-333-0-0-333-0-0-333---------------|
     |PM-|   |PM-|   |-------PM-------|
[ Tab from: http://www.guitaretab.com/d/devildriver/92994.html ]
Fig 3         4x
|----------------|
|----------------|
|----------------|
|----------------|
|--333555444666--|
|----------------|
  |----PM------|

Chorus                      2x                                    2x
|----------------------------|  |----------------------------------|
|----------------------------|  |----------------------------------|
|----------------------------|  |----------------------------------|
|----------------------------|  |----------------------------------|
|-9-9-99-991090-4-4-44-44540-|  |--(about 10x)---------(" ")-------|
|-9-9-99-991090-4-4-44-44540-|  |-9-----------9-91090-4-----4-4540-|
                                 pm           ~      pm     ~

Fig 4
|--------------|
|--------------|
|--------------|
|----xx--------|
|----xx--------|
|----xx---12\--|

Fig 2  

Verse 

Chorus

Fig 5
|-----------------------------------------------------------------------|
|-----------------------------------------------------------------------|
|-----------------------------------------------------------------------|
|-----------------------------------------------------------------------|
|----------------------------(about 6x)---------------------------------|
|-1002003004005006007008009009---------91290-900800700600500400300200100|
                 
|-----------------|
|-----------------|
|-----------------|
|-----------------|
|-(about 6x)------|
|-1---------1310--|

Play that 5x

The first time bend the 1,2,3,..etc
The next 3x play the 0's PM and the 1,2,3,..etc on top 3 strings not PM
The last time play ONLY the 1,2,3,..etc. play them PM and continuous picking.

Outro                              2x
|-----------------------------------|
|-----------------------------------|
|-----------------------------------|
|-----------------------------------|
|-000-00-0-00-3300-00-00-0333222111-|
|-000-00-0-00-3300-00-00-0333222111-|
Play this every third time
|-----------------------------------|
|-----------------------------------|
|-----------------------------------|
|-----------------------------------|
|-333-33-3-33-5533-33-33-3333222111-|
|-333-33-3-33-5533-33-33-3333222111-|

Play outro untill it fades out.

I am pretty sure this is correct. If not it is close.














Related for Impending Disaster tab
Impending Disaster chords by Devildriver