Song name
# A B C D E F G H I J K L M N O P Q R S T U V W X Y Z

Devildriver - Head On To Heartache Let Them Rot tab

----------------------------------------------------------------------------
           Head On to Heartache (let them rot) - Devildriver
----------------------------------------------------------------------------
Tabbed by:Ollie
Email:deathmetalgod666@hotmail.com

Intro
pt1
|--------------------------------|
|--------------------------------|
|--------------------------------|   X2
|00000000000000001111111111111111|
|--------------------------------|
|--------------------------------|

pt2
Guitar 1

|--------------------------------------------------------------------|
|--------------------------------------------------------------------|
|--------------------------------------------------------------------|
|-----3--------3--------3--------3---------32------32------32------20|X2
|5555---5-5555---5-5555---5-5555---5--1111----1111----0000----0000---|
|--------------------------------------------------------------------|

Guitar 2

|---------------------------------------------|
|---------------------------------------------|
|---------------------------------------------|
|---------------------------------------------|    X2
|-----------------------11--1111--100--0000--0|
|00--0000--0000--0000--0----------------------|
 ..  ....  ....  ....  ...  ....  ...  ....  .         (.=P.M)


Bridge
pt1
|-------------------------------------------------------------------------|
|-------------------------------------------------------------------------|
|-------------------------------------------------------------------------|
|-------------------------------------------------------------------------|X2
|0--0-3p-0---0--3p-0---0-3p-0-3p-0--3-4---1--1-4p-1---1-4p-1--1-4p-1-3-4-6|
|0--0-3p-0---0--3p-0---0-3p-0-3p-0--3-4---1--1-4p-1---1-4p-1--1-4p-1-3-4-6|

pt2 (x2)
|---------------------------------------------------------------------------|
|---------------------------------------------------------------------------|
|---------------------------------------------------------------------------|
|------3-------------------3-------------------4------------------4---------|
|3-0------0--3--0--3--0---------1--4--1--4--1-----1--4--1--4--1------4--6---|
|3-0------0--3--0--3--0---------1--4--1--4--1-----1--4--1--4--1------4--6---|


Thn back the the intro pt1 but once instead of twice, then the bridge again.

After that intro pt1 once, and then the rest of the intro and the bridge.
Do this line twice then onto..

Gtar 1
|--------------------------------------------------------------|
|--------------------------------------------------------------|
|--------------------------------------------------------------|
|--------------------------------------------------------------| x2
|X-X--5--X--8--7--5--X-X-X--5--X--8--7--5--0--11111111-33333333|
|X-X--5--X--8--7--5--X-X-X--5--X--8--7--5--0--11111111-33333333|

                             3s change to 8888-4444 second time round

Then gtar 2 goes in the solo, with gtar 1 playing the part above throughout.

Then back to intro pt1 played once then intro pt 2 played 4 times instead of 2.


Then the outro.

gtar 1
|--------------------------------------------------------------|
|--------------------------------------------------------------|
|--------------------------------------------------------------|
|----3--------3-------3----------3---2----2---0---3---0--------| x2
|--------5--------5--------5-----------------------------------|
|--------------------------------------------------------------|

gtar 2

|------14--11------14--11------14--13-------11--10------14--11-|
|--------------------------------------------------------------|
|--------------------------------------------------------------|
|--------------------------------------------------------------| x2
|--------------------------------------------------------------|
|--------------------------------------------------------------|


Tap to rate this tab
 
# A B C D E F G H I J K L M N O P Q R S T U V W X Y Z