Guitaretab - guitar tabs
Song name
# A B C D E F G H I J K L M N O P Q R S T U V W X Y Z

Devildriver - Clouds Over California tab

Song - Clouds Over California
Artist - DevilDriver
Album - The Last Kind Words
Tuning - D Standard (DCGFAd)

Intro
Guitar 1                                                                  Ending
|-[5]---------------------------------------------------------------------|------------------|
|---[5]-------------------------------------------------------------------|------------------|
|*----[5]----------------------------------------------------------------*|------------------|
|*------[5]--------------------------------------------------------------*|------------------|
|---------[5]-------------------------------------------------------------|---7-7-7----5-5-5-|
|-------------2-2-2-2-2-2-2-2-2-2-2-2-2-2-2-2-2-2-2-2-2-2-2-2-2-2-2-2-2-2-|-5--------3-------|
              . . . . . . . . . . . . . . . . . . . . . . . . . . . . . . 
2x                                                              
|-------------------------------------------------------------------------------|
|-------------------------------------------------------------------------------|
|-------------------------------------------------------------------------------|
|-------------------------------------------------------------------------------|
|----------------------------------------------------------------7-7-7----5-5-5-|
|-2-2-2-2-2-2-2-2-2-2-2-2-2-2-2-2-2-2-2-2-2-2-2-2-2-2-2-2-2-2--5--------3-------|
  . . . . . . . . . . . . . . . . . . . . . . . . . . . . . .

Pre-Verse
Guitar 1
|-----------------------------------------------|
|--17-------17-------17----19-20-20-19-19-20-20-|
|-----16-16----16-16----16----------------------|
|-----------------------------------------------|
|-----------------------------------------------|
|-----------------------------------------------|
|
|Guitar 2
|-----------------------------------------------|
|-----------------------------------------------|
|-----------------------------------------------|
|-----------------------------------------------|
|-----------------------------7-7-7----5-5-5----|
|-2222222222222222222222222-5--------3----------|
  .........................

Guitar 1 
|-----------------------------------------------|
|--17-------17-------17----19-20-19----19-20-19-|
|-----16-16----16-16----16----------19----------|
|-----------------------------------------------|
|-----------------------------------------------|
|-----------------------------------------------|
|
|Guitar 2
|-----------------------------------------------|
|-----------------------------------------------|
|-----------------------------------------------|
|-----------------------------------------------|
|-----------------------------7-7-7----5-5-5----|
|-2222222222222222222222222-5--------3----------|
  .........................

Guitar 1
|--------------------------------------------------------------|
|--17-------17-------17----17-------17-------17----19-20---19B-|
|-----16-16----16-16----16----16-16----16-16----16---------21B-|
|--------------------------------------------------------------|
|--------------------------------------------------------------|
|--------------------------------------------------------------|
|
|Guitar 2
|---------------------------------------------------------------|
|---------------------------------------------------------------|
|---------------------------------------------------------------|
|---------------------------------------------------------------|
|-----------------------------7-7-7----5-5-5--------------------|
|-2222222222222222222222222-5--------3--------22222222222222222-|
  .........................                   .................

Verse 4x (Ending 1, Ending 2, Ending 1, Ending 3)
Both Guitars
|-----------------------------------------------------------------|
|-----------------------------------------------------------------|
|-----------------------------------------------------------------|
|-----------------------------------------------------------------|
|-----------------------------------------------------------------|
|-0-000-12-0-12-0-12h14--000-12-0-14-0-14h15--000-14-0-15-0-15h17-|
  . ...    .    .        ...    .    .        ...    .    .
Ending 1                       Ending 2                         
|------------------------------|--------------------------------|
|------------------------------|--------------------------------|
|------------------------------|--------------------------------|
|------------------------------|--------------------------------|
|---------14141414-------------|--------------------------------|
|-15151515--------131313131313-|-15151515-14141414-131313131313-|
  ............................   ........ ........ ............  

Ending 3
|-------------------------------------------------|
|-------------------------------------------------|
|-------------------------------------------------|
|-------------------------------------------------|
|---7---7---7h9----7---9---9h10----9---10---10h12-|
|-0---0---0------0---0---0-------0---0----0-------|
  .   .   .      .   .   .       .   .    .

Pre-Chorus
Both Guitars
|------------------------------------------------------------------------|
|------------------------------------------------------------------------|
|------------------------------------------------------------------------|
|------------------------------------------------------------------------|
|-----------------------------------------------------------------5-5--3-|
|-0h12--0h12--0h12--0h12--0h8--0h8--0h8--0h8--0h6--0h6--0h6--0h6--3-3--1-|

Chorus
Guitar 1
|-----------------------------------------------|
|--17-------17-------17----19-20-20-19-19-20-20-|
|-----16-16----16-16----16----------------------|
|-----------------------------------------------|
|-----------------------------------------------|
|-----------------------------------------------|
|
|Guitar 2
|-----------------------------------------------|
|-----------------------------------------------|
|-----------------------------------------------|
|-----------------------------------------------|
|-----------------------------7-7-7----5-5-5----|
|-2222222222222222222222222-5--------3----------|
  .........................

Guitar 1 
|-----------------------------------------------|
|--17-------17-------17----19-20-19----19-20-19-|
|-----16-16----16-16----16----------19----------|
|-----------------------------------------------|
|-----------------------------------------------|
|-----------------------------------------------|
|
|Guitar 2
|-----------------------------------------------|
|-----------------------------------------------|
|-----------------------------------------------|
|-----------------------------------------------|
|-----------------------------7-7-7----5-5-5----|
|-2222222222222222222222222-5--------3----------|
  .........................

Guitar 1
|-----------------------------------------------|
|--17-------17-------17----19-20-20-19-19-20-20-|
|-----16-16----16-16----16----------------------|
|-----------------------------------------------|
|-----------------------------------------------|
|-----------------------------------------------|
|
|Guitar 2
|-----------------------------------------------|
|-----------------------------------------------|
|-----------------------------------------------|
|-----------------------------------------------|
|-----------------------------7-7-7----5-5-5----|
|-2222222222222222222222222-5--------3----------|
  .........................

Guitar 1 
|-----------------------------------------------|
|--17-------17-------17----19-20-19----19-20-19-|
|-----16-16----16-16----16----------19----------|
|-----------------------------------------------|
|-----------------------------------------------|
|-----------------------------------------------|
|
|Guitar 2
|-----------------------------------------------|
|-----------------------------------------------|
|-----------------------------------------------|
|-----------------------------------------------|
|-----------------------------7-7-7----5-5-5----|
|-2222222222222222222222222-5--------3----------|
  .........................
[ Tab from: http://www.guitaretab.com/d/devildriver/98623.html ]
Guitar 1
|---------------------------------------------------------------|
|--17-------17-------17----17-------17-------17----19-20---19br-|
|-----16-16----16-16----16----16-16----16-16----16---------21br-|
|---------------------------------------------------------------|
|---------------------------------------------------------------|
|---------------------------------------------------------------|
|
|Guitar 2
|---------------------------------------------------------------|
|---------------------------------------------------------------|
|---------------------------------------------------------------|
|---------------------------------------------------------------|
|-----------------------------7-7-7----5-5-5--------------------|
|-2222222222222222222222222-5--------3--------22222222222222222-|
  .........................                   .................

Repeat Verse (Ending 1, Ending 2, Ending 3)
Repeat Pre-Chorus

Chorus 2
Guitar 1
|-----------------------------------------------|
|--17-------17-------17----19-20-20-19-19-20-20-|
|-----16-16----16-16----16----------------------|
|-----------------------------------------------|
|-----------------------------------------------|
|-----------------------------------------------|
|
|Guitar 2
|-----------------------------------------------|
|-----------------------------------------------|
|-----------------------------------------------|
|-----------------------------------------------|
|-----------------------------7-7-7----5-5-5----|
|-2222222222222222222222222-5--------3----------|
  .........................

Guitar 1 
|-----------------------------------------------|
|--17-------17-------17----19-20-19----19-20-19-|
|-----16-16----16-16----16----------19----------|
|-----------------------------------------------|
|-----------------------------------------------|
|-----------------------------------------------|
|
|Guitar 2
|-----------------------------------------------|
|-----------------------------------------------|
|-----------------------------------------------|
|-----------------------------------------------|
|-----------------------------7-7-7----5-5-5----|
|-2222222222222222222222222-5--------3----------|
  .........................

Guitar 1
|-----------------------------------------------|
|--17-------17-------17----19-20-20-19-19-20-20-|
|-----16-16----16-16----16----------------------|
|-----------------------------------------------|
|-----------------------------------------------|
|-----------------------------------------------|
|
|Guitar 2
|-----------------------------------------------|
|-----------------------------------------------|
|-----------------------------------------------|
|-----------------------------------------------|
|-----------------------------7-7-7----5-5-5----|
|-2222222222222222222222222-5--------3----------|
  .........................

Guitar 1 
|-----------------------------------------------|
|--17-------17-------17----19-20-19----19-20-19-|
|-----16-16----16-16----16----------19----------|
|-----------------------------------------------|
|-----------------------------------------------|
|-----------------------------------------------|
|
|Guitar 2
|-----------------------------------------------|
|-----------------------------------------------|
|-----------------------------------------------|
|-----------------------------------------------|
|-----------------------------7-7-7----5-5-5----|
|-2222222222222222222222222-5--------3----------|
  .........................

Guitar 1
|-----------------------------------------------|
|--17-------17-------17----19-20-20-19-19-20-20-|
|-----16-16----16-16----16----------------------|
|-----------------------------------------------|
|-----------------------------------------------|
|-----------------------------------------------|
|
|Guitar 2
|-----------------------------------------------|
|-----------------------------------------------|
|-----------------------------------------------|
|-----------------------------------------------|
|-----------------------------7-7-7----5-5-5----|
|-2222222222222222222222222-5--------3----------|
  .........................

Guitar 1 
|-----------------------------------------------|
|--17-------17-------17----19-20-19----19-20-19-|
|-----16-16----16-16----16----------19----------|
|-----------------------------------------------|
|-----------------------------------------------|
|-----------------------------------------------|
|
|Guitar 2
|-----------------------------------------------|
|-----------------------------------------------|
|-----------------------------------------------|
|-----------------------------------------------|
|-----------------------------7-7-7----5-5-5----|
|-2222222222222222222222222-5--------3----------|
  .........................

Guitar 1
|-----------------------------------------------|
|--17-------17-------17----19-20-20-19-19-20-20-|
|-----16-16----16-16----16----------------------|
|-----------------------------------------------|
|-----------------------------------------------|
|-----------------------------------------------|
|
|Guitar 2
|-----------------------------------------------|
|-----------------------------------------------|
|-----------------------------------------------|
|-----------------------------------------------|
|-----------------------------7-7-7----5-5-5----|
|-2222222222222222222222222-5--------3----------|
  .........................

Guitar 1 
|-----------------------------------------------|
|--17-------17-------17----19-20-19----19-20-19-|
|-----16-16----16-16----16----------19----------|
|-----------------------------------------------|
|-----------------------------------------------|
|-----------------------------------------------|

Bridge
|-----------------------------------------------------------------------|
|-----------------------------------------------------------------------|
|-----------------------------------------------------------------------|
|-----------------------------------------------------------------------|
|-2------------------------------2--------------------------------------|
|-0-0000-2--0000-2--0000-2--0000-0-0000-2--0000-19/////////////////////-|
    ....    ....    ....    ....   ....    ....

Sorry don't know the second part to the Bridge

Solo
|-12---------12---------12---------15---------15---------17-------|
|-15b-----rb-15b-----rb-15b-----rb-17b-----rb-17b-----rb-20b---rb-|
|-----------------------------------------------------------------|
|-----------------------------------------------------------------|
|-----------------------------------------------------------------|
|-----------------------------------------------------------------|

|-15151515-17171717-18181818-17171717-15151515-17171717-15151515-|
|----------------------------------------------------------------|
|----------------------------------------------------------------|
|----------------------------------------------------------------|
|----------------------------------------------------------------|
|----------------------------------------------------------------|

|-13131313-15151515-13131313-121212121212-|
|-----------------------------------------|
|-----------------------------------------|
|-----------------------------------------|
|-----------------------------------------|
|-----------------------------------------|

|-/1919191919191919\12/1515151515151515-14---------15-15-19-|
|------------------------------------------------16---------|
|----------------------------------------------17-----------|
|--------------------------------------------17-------------|
|------------------------------------------15---------------|
|-----------------------------------------------------------|

(Very fast, not sure if it is right though)
|-151619-151619-151619-151619-161720-161720-161720-161720-121317-121317-121317-121317--12---12---|
|--------------------------------------------------------------------------------------15br-15br-|
|------------------------------------------------------------------------------------------------|
|------------------------------------------------------------------------------------------------|
|------------------------------------------------------------------------------------------------|
|------------------------------------------------------------------------------------------------|

Fill
|---------|
|---------|
|---------|
|---------|
|-5-5---3-|
|-3-3---1-|

Play Pre-Chorus
Play Chorus 2

Outro
|-----------------------------------------------------------------------------|
|-----------------------------------------------------------------------------|
|-----------------------------------------------------------------------------|
|-----------------------------------------------------------------------------|
|------------------------------------------------------------------7-7-7---9/-|
|-0-0-00000000-12/////-0-0-00000000-14/////-0-0-00000000-15/////-5-------7----|
  . . ........         . . ........         . . ........          

Legend

h - Hammer On
b - Bend
br - Bend Return
/ - Slide Down
\ - Slide Up
. - Palm Mute
[5] - Natural Harmonic (5th Fret)
Related for Clouds Over California tab
Advertisement will be closed in 10 seconds